Guitar Tabs
song title    band name

Join Us Today!

Don't strum alone...
be a part of the largest online Christian music community. Browse thousands of guitar tabs and chat w/ musicians like yourself.


It's Free!

This tab has been rated a 5.00 out of 5 for accuracy. (3 votes)Sorry, but you must be logged in to rate this tab.
Click here to log-in, or you can click here to register.
(Registration is free)

All songs owned by corresponding publishing company. If you make copies of any song on this website, be sure to report your usage to CCLI.
Submitted by: Ethan Miklancic

GOD OF WONDERS
Artist: Third Day
Album: Offerings II: All I Have to Give
Tabbed by: Ethan Miklancic

GUITARS
gtr. 1: Acoustic (CAPO III) - Standard Tuning (EADGBE)
gtr. 2: Electric; Chorus (CAPO III) - Standard Tuning (EADGBE)
gtr. 3: Electric; Chorus (CAPO III) - Standard Tuning (EADGBE)
gtr. 4: Bass Guitar - Standard Tuning (EADG)

++++++++++++
INTRO (0:04)
++++++++++++

:::::::::::::::::::::::::::::::::::::::::::::::

gtr. 1
  Dsus4  Em7                  Cadd9              
|-3-3--3---3-----3---3-|-3-3--3-3-------3---3-|
|-3-3--3---3---3-3-3-3-|-3-3--3-3-3---3-3-3-3-|
|-2-2--2---0---0-0-0-0-|-0-0--0-0-0---0-0-0-0-|
|-0------2-2---2-2-2-2-|-2-2------2-2-2-2-2-2-|
|--------2-2---2---2---|-2-2------3-3-3---3---|
|----------0-----------|----------------------|
  D u  D D D   D u D u   D u  D u D D D u D u

:::::::::::::::::::::::::::::::::::::::::::::::

gtr. 1
  Dsus4  Em7                  Cadd9              
|-3-3--3---3-----3---3-|-3-3--3-3-------3---3-|
|-3-3--3---3---3-3-3-3-|-3-3--3-3-3---3-3-3-3-|
|-2-2--2---0---0-0-0-0-|-0-0--0-0-0---0-0-0-0-|
|-0------2-2---2-2-2-2-|-2-2------2-2-2-2-2-2-|
|--------2-2---2---2---|-2-2------3-3-3---3---|
|----------0-----------|----------------------|
  D u  D D D   D u D u   D u  D u D D D u D u

:::::::::::::::::::::::::::::::::::::::::::::::

++++++++++++++
VERSE 1 (0:16)
++++++++++++++

:::::::::::::::::::::::::::::::::::::::::::::::

gtr. 1
  Dsus4    Em7                Cadd9              
|-3-3--3---3-----3---3-|-3-3--3-3-------3---3-|
|-3-3--3---3---3-3-3-3-|-3-3--3-3-3---3-3-3-3-|
|-2-2--2---0---0-0-0-0-|-0-0--0-0-0---0-0-0-0-|
|-0--------2---2-2-2-2-|-2-2------2---2-2-2-2-|
|----------2---2---2---|-2-2------3---3---3---|
|----------0-----------|----------------------|
  D u  D   D   D u D u   D u  D u D   D u D u

:::::::::::::::::::::::::::::::::::::::::::::::

gtr. 1
  Dsus4    Em7                Cadd9              
|-3-3--3---3-----3---3-|-3-3--3-3-------3---3-|
|-3-3--3---3---3-3-3-3-|-3-3--3-3-3---3-3-3-3-|
|-2-2--2---0---0-0-0-0-|-0-0--0-0-0---0-0-0-0-|
|-0--------2---2-2-2-2-|-2-2------2---2-2-2-2-|
|----------2---2---2---|-2-2------3---3---3---|
|----------0-----------|----------------------|
  D u  D   D   D u D u   D u  D u D   D u D u

:::::::::::::::::::::::::::::::::::::::::::::::

gtr. 1
  Dsus4    Em7                Cadd9              
|-3-3--3---3-----3---3-|-3-3--3-3-------3---3-|
|-3-3--3---3---3-3-3-3-|-3-3--3-3-3---3-3-3-3-|
|-2-2--2---0---0-0-0-0-|-0-0--0-0-0---0-0-0-0-|
|-0--------2---2-2-2-2-|-2-2------2---2-2-2-2-|
|----------2---2---2---|-2-2------3---3---3---|
|----------0-----------|----------------------|
  D u  D   D   D u D u   D u  D u D   D u D u

:::::::::::::::::::::::::::::::::::::::::::::::

gtr. 1
  Dsus4    Em7                Cadd9              
|-3-3--3---3-----3---3-|-3-3--3-3-------3---3-|
|-3-3--3---3---3-3-3-3-|-3-3--3-3-3---3-3-3-3-|
|-2-2--2---0---0-0-0-0-|-0-0--0-0-0---0-0-0-0-|
|-0--------2---2-2-2-2-|-2-2------2---2-2-2-2-|
|----------2---2---2---|-2-2------3---3---3---|
|----------0-----------|----------------------|
  D u  D   D   D u D u   D u  D u D   D u D u

:::::::::::::::::::::::::::::::::::::::::::::::

+++++++++++++++
CHORUS 1 (0:39)
+++++++++++++++

:::::::::::::::::::::::::::::::::::::::::::::::

gtr. 1
  G                      D             
|-3----3---------3---3-|-2----2---------2---2-|
|-3----3---3---3-3-3-3-|-3----3---3---3-3-3-3-|
|-0----0---0---0-0-0-0-|-2----2---2---2-2-2-2-|
|-0----0---0---0-0-0-0-|-0----0---0---0---0-0-|
|-2--------2---2---2-2-|----------------------|
|-3--------3-------3---|----------------------|
  D    D   D   D u D u   D    D   D   D u D u

gtr. 2
  G                      D             
|-3--------------------|-2--------------------|
|-3--------------------|-3--------------------|
|-0--------------------|-2--------------------|
|-0--------------------|-0--------------------|
|-2--------------------|----------------------|
|-3--------------------|----------------------|

gtr. 3

|-----3-----2------0---|-----3-----2------0---|
|---3---------3------3-|---3---------3------3-|
|-0------0------0------0h2------2------2------|
|----------------------|----------------------|
|----------------------|----------------------|
|----------------------|----------------------|

:::::::::::::::::::::::::::::::::::::::::::::::

gtr. 1
  Am7                    C             
|-0----0---------0---0-|-0----0---------0---0-|
|-1----1---1---1-1-1-1-|-1----1---1---1-1-1-1-|
|-0----0---0---0-0-0-0-|-0----0---0---0-0-0-0-|
|-2----2---2---2-2-2-2-|-2----2---2---2---2-2-|
|-0--------0---0---0-0-|-3--------3---3---3-3-|
|----------------------|----------------------|
  D    D   D   D u D u   D    D   D   D u D u

gtr. 2
  Am7                    C             
|-0--------------------|-0--------------------|
|-1--------------------|-1--------------------|
|-0--------------------|-0--------------------|
|-2--------------------|-2--------------------|
|-0--------------------|-3--------------------|
|----------------------|----------------------|

gtr. 3

|-----3-----2------5---|-----3-----2------0---|
|---3---------3------3-|---3---------3------3-|
|-0------0------0------0h2------2------2------|
|----------------------|----------------------|
|----------------------|----------------------|
|----------------------|----------------------|

:::::::::::::::::::::::::::::::::::::::::::::::

gtr. 1
  G                      D             
|-3----3---------3---3-|-2----2---------2---2-|
|-3----3---3---3-3-3-3-|-3----3---3---3-3-3-3-|
|-0----0---0---0-0-0-0-|-2----2---2---2-2-2-2-|
|-0----0---0---0-0-0-0-|-0----0---0---0---0-0-|
|-2--------2---2---2-2-|----------------------|
|-3--------3-------3---|----------------------|
  D    D   D   D u D u   D    D   D   D u D u

gtr. 2
  G                      D             
|-3--------------------|-2--------------------|
|-3--------------------|-3--------------------|
|-0--------------------|-2--------------------|
|-0--------------------|-0--------------------|
|-2--------------------|----------------------|
|-3--------------------|----------------------|

gtr. 3

|-----3-----2------0---|-----3-----2------0---|
|---3---------3------3-|---3---------3------3-|
|-0------0------0------0h2------2------2------|
|----------------------|----------------------|
|----------------------|----------------------|
|----------------------|----------------------|

:::::::::::::::::::::::::::::::::::::::::::::::

gtr. 1
  Am7                    C             
|-0----0---------0---0-|-0----0---------0---0-|
|-1----1---1---1-1-1-1-|-1----1---1---1-1-1-1-|
|-0----0---0---0-0-0-0-|-0----0---0---0-0-0-0-|
|-2----2---2---2-2-2-2-|-2----2---2---2---2-2-|
|-0--------0---0---0-0-|-3--------3---3---3-3-|
|----------------------|----------------------|
  D    D   D   D u D u   D    D   D   D u D u

gtr. 2
  Am7                    C             
|-0--------------------|-0--------------------|
|-1--------------------|-1--------------------|
|-0--------------------|-0--------------------|
|-2--------------------|-2--------------------|
|-0--------------------|-3--------------------|
|----------------------|----------------------|

gtr. 3

|-----3-----2------5---|-----3-----2------0---|
|---3---------3------3-|---3---------3------3-|
|-0------0------0------0h2------2------2------|
|----------------------|----------------------|
|----------------------|----------------------|
|----------------------|----------------------|

:::::::::::::::::::::::::::::::::::::::::::::::

+++++++++++++++
BRIDGE 1 (1:02)
+++++++++++++++

:::::::::::::::::::::::::::::::::::::::::::::::

gtr. 1 and gtr. 2
  C                                 
|-0----0---------0---0-|-0----0---------0---0-|
|-1----1---1---1-1-1-1-|-1----1---1---1-1-1-1-|
|-0----0---0---0-0-0-0-|-0----0---0---0-0-0-0-|
|-2----2---2---2-2-2-2-|-2----2---2---2---2-2-|
|-3--------3---3---3-3-|-3--------3---3---3-3-|
|----------------------|----------------------|
  D    D   D   D u D u   D    D   D   D u D u

:::::::::::::::::::::::::::::::::::::::::::::::

gtr. 1 and gtr. 2
  C                                 
|-0----0---------0---0-|-0----0---------0---0-|
|-1----1---1---1-1-1-1-|-1----1---1---1-1-1-1-|
|-0----0---0---0-0-0-0-|-0----0---0---0-0-0-0-|
|-2----2---2---2-2-2-2-|-2----2---2---2---2-2-|
|-3--------3---3---3-3-|-3--------3---3---3-3-|
|----------------------|----------------------|
  D    D   D   D u D u   D    D   D   D u D u

:::::::::::::::::::::::::::::::::::::::::::::::

++++++++++++++++
INTERLUDE (1:13)
++++++++++++++++

:::::::::::::::::::::::::::::::::::::::::::::::

gtr. 1
  Dsus4    Em7                Cadd9              
|-3-3--3---3-----3---3-|-3-3--3-3-------3---3-|
|-3-3--3---3---3-3-3-3-|-3-3--3-3-3---3-3-3-3-|
|-2-2--2---0---0-0-0-0-|-0-0--0-0-0---0-0-0-0-|
|-0--------2---2-2-2-2-|-2-2------2---2-2-2-2-|
|----------2---2---2---|-2-2------3---3---3---|
|----------0-----------|----------------------|
  D u  D   D   D u D u   D u  D u D   D u D u

gtr. 3

|-------7----------7---|-------7---------8-7--|
|----8----8----8-----8-|---8-----8---8--------|
|-7---------7----7-----|-7---7-----7---7------|
|----------------------|----------------------|
|----------------------|----------------------|
|----------------------|----------------------|

gtr. 4

|----------------------|----------------------|
|----------------------|----------------------|
|-3-3-3--3-5--5-----55-|-1-1-1---1--11-1------|
|----------------------|----------------------|

:::::::::::::::::::::::::::::::::::::::::::::::

gtr. 1
  Dsus4    Em7                Cadd9              
|-3-3--3---3-----3---3-|-3-3--3-3-------3---3-|
|-3-3--3---3---3-3-3-3-|-3-3--3-3-3---3-3-3-3-|
|-2-2--2---0---0-0-0-0-|-0-0--0-0-0---0-0-0-0-|
|-0--------2---2-2-2-2-|-2-2------2---2-2-2-2-|
|----------2---2---2---|-2-2------3---3---3---|
|----------0-----------|----------------------|
  D u  D   D   D u D u   D u  D u D   D u D u

gtr. 3

|-------7----------7---|-------7---------8-7--|
|----8----8----8-----8-|---8-----8---8------8-|
|-7---------7----7-----|-7---7-----7---7------|
|----------------------|----------------------|
|----------------------|----------------------|
|----------------------|----------------------|

gtr. 4

|----------------------|----------------------|
|----------------------|----------------------|
|-3-3-3--3-5--5-----55-|-111-1---1--11-1------|
|----------------------|----------------------|

:::::::::::::::::::::::::::::::::::::::::::::::

++++++++++++++
VERSE 2 (1:25)
++++++++++++++

:::::::::::::::::::::::::::::::::::::::::::::::

gtr. 1
  Dsus4    Em7                Cadd9              
|-3-3--3---3-----3---3-|-3-3--3-3-------3---3-|
|-3-3--3---3---3-3-3-3-|-3-3--3-3-3---3-3-3-3-|
|-2-2--2---0---0-0-0-0-|-0-0--0-0-0---0-0-0-0-|
|-0--------2---2-2-2-2-|-2-2------2---2-2-2-2-|
|----------2---2---2---|-2-2------3---3---3---|
|----------0-----------|----------------------|
  D u  D   D   D u D u   D u  D u D   D u D u

gtr. 3

|----------------------|----------------------|
|----------------------|------8--7--8--8/10---|
|----------------------|----------------------|
|----------------------|----------------------|
|----------------------|----------------------|
|----------------------|----------------------|

gtr. 4

|----------------------|----------------------|
|----------------------|----------------------|
|-3-3-3--3-5--5--------|-11--11--1--11-1------|
|----------------------|----------------------|

:::::::::::::::::::::::::::::::::::::::::::::::

gtr. 1
  Dsus4    Em7                Cadd9              
|-3-3--3---3-----3---3-|-3-3--3-3-------3---3-|
|-3-3--3---3---3-3-3-3-|-3-3--3-3-3---3-3-3-3-|
|-2-2--2---0---0-0-0-0-|-0-0--0-0-0---0-0-0-0-|
|-0--------2---2-2-2-2-|-2-2------2---2-2-2-2-|
|----------2---2---2---|-2-2------3---3---3---|
|----------0-----------|----------------------|
  D u  D   D   D u D u   D u  D u D   D u D u

|----------------------|-----------------10---|
|----------------------|---------------8------|
|----------------------|----------------------|
|----------------------|----------------------|
|----------------------|----------------------|
|----------------------|----------------------|

gtr. 4

|----------------------|----------------------|
|----------------------|----------------------|
|-33333--3-5--5--------|-11111---1-111-1------|
|----------------------|----------------------|

:::::::::::::::::::::::::::::::::::::::::::::::

gtr. 1
  Dsus4    Em7                Cadd9              
|-3-3--3---3-----3---3-|-3-3--3-3-------3---3-|
|-3-3--3---3---3-3-3-3-|-3-3--3-3-3---3-3-3-3-|
|-2-2--2---0---0-0-0-0-|-0-0--0-0-0---0-0-0-0-|
|-0--------2---2-2-2-2-|-2-2------2---2-2-2-2-|
|----------2---2---2---|-2-2------3---3---3---|
|----------0-----------|----------------------|
  D u  D   D   D u D u   D u  D u D   D u D u

gtr. 4

|----------------------|----------------------|
|----------------------|----------------------|
|-33333--3-5--5-----55-|-1-1-1---1--11-1------|
|----------------------|----------------------|

:::::::::::::::::::::::::::::::::::::::::::::::

gtr. 1
  Dsus4    Em7                Cadd9              
|-3-3--3---3-----3---3-|-3-3--3-3-------3---3-|
|-3-3--3---3---3-3-3-3-|-3-3--3-3-3---3-3-3-3-|
|-2-2--2---0---0-0-0-0-|-0-0--0-0-0---0-0-0-0-|
|-0--------2---2-2-2-2-|-2-2------2---2-2-2-2-|
|----------2---2---2---|-2-2------3---3---3---|
|----------0-----------|----------------------|
  D u  D   D   D u D u   D u  D u D   D u D u

gtr. 4

|----------------------|----------------------|
|----------------------|----------------------|
|-3-3-3--3-5--5-----55-|-1-1-1---1--11-1------|
|----------------------|----------------------|

:::::::::::::::::::::::::::::::::::::::::::::::

+++++++++++++++
CHORUS 2 (1:48)
+++++++++++++++

:::::::::::::::::::::::::::::::::::::::::::::::

gtr. 1
  G                      D             
|-3-3---3---33-3---3---|-2-2---2---22-2---2---|
|-3-3-3-3-3-33-3-3-3-3-|-3-3-3-3-3-33-3-3-3-3-|
|-0-0-0-0-0-00-0-0-0-0-|-2-2-2-2-2-22-2-2-2-2-|
|-0-0-0-0-0-00-0-0-0-0-|-0-0-0-0-0-00-0---0-0-|
|-2---2---2------2-2-2-|----------------------|
|-3--------------3-----|----------------------|
  D u D u D Du u D u D   D u D u D Du u D u D

gtr. 2
  G                      D             
|-3--------------------|-2--------------------|
|-3--------------------|-3--------------------|
|-0--------------------|-2--------------------|
|-0--------------------|-0--------------------|
|-2--------------------|----------------------|
|-3--------------------|----------------------|

gtr. 3

|-----3-----2------0---|-----3-----2------0---|
|---3---------3------3-|---3---------3------3-|
|-0------0------0------0h2------2------2------|
|----------------------|----------------------|
|----------------------|----------------------|
|----------------------|----------------------|

gtr. 4

|----------------------|----------------------|
|----------------------|----------------------|
|----------------------|----------------------|
|-6--6--6-----6-6-66---|-1--1--1-----1-1-11---|

:::::::::::::::::::::::::::::::::::::::::::::::

gtr. 1
  Am7                    C             
|-0-0---0---00-0---0---|-0-0---0---00-0---0---|
|-1-1-1-1-1-11-1-1-1-1-|-1-1-1-1-1-11-1-1-1-1-|
|-0-0-0-0-0-00-0-0-0-0-|-0-0-0-0-0-00-0-0-0-0-|
|-2-2-2-2-2-22-2-2-2-2-|-2-2-2-2-2-22-2-2-2-2-|
|-0---0---0------0-0-0-|-3---3---3------3-3-3-|
|----------------------|----------------------|
  D u D u D Du u D u D   D u D u D Du u D u D

gtr. 2
  Am7                    C             
|-0--------------------|-0--------------------|
|-1--------------------|-1--------------------|
|-0--------------------|-0--------------------|
|-2--------------------|-2--------------------|
|-0--------------------|-3--------------------|
|----------------------|----------------------|

gtr. 3

|-----3-----2------5---|-----3-----2------0---|
|---3---------3------3-|---3---------3------3-|
|-0------0------0------0h2------2------2------|
|----------------------|----------------------|
|----------------------|----------------------|
|----------------------|----------------------|

gtr. 4

|----------------------|----------------------|
|----------------------|----------------------|
|----------------------|----------------------|
|-3--3--3-----3-3-33---|-6--6--6-----6-6-66---|

:::::::::::::::::::::::::::::::::::::::::::::::

gtr. 1
  G                      D             
|-3-3---3---33-3---3---|-2-2---2---22-2---2---|
|-3-3-3-3-3-33-3-3-3-3-|-3-3-3-3-3-33-3-3-3-3-|
|-0-0-0-0-0-00-0-0-0-0-|-2-2-2-2-2-22-2-2-2-2-|
|-0-0-0-0-0-00-0-0-0-0-|-0-0-0-0-0-00-0---0-0-|
|-2---2---2------2-2-2-|----------------------|
|-3--------------3-----|----------------------|
  D u D u D Du u D u D   D u D u D Du u D u D

gtr. 2
  G                      D             
|-3--------------------|-2--------------------|
|-3--------------------|-3--------------------|
|-0--------------------|-2--------------------|
|-0--------------------|-0--------------------|
|-2--------------------|----------------------|
|-3--------------------|----------------------|

gtr. 3

|-----3-----2------0---|-----3-----2------0---|
|---3---------3------3-|---3---------3------3-|
|-0------0------0------0h2------2------2------|
|----------------------|----------------------|
|----------------------|----------------------|
|----------------------|----------------------|

gtr. 4

|----------------------|----------------------|
|----------------------|----------------------|
|----------------------|----------------------|
|-6--6--6-----6-6-66---|-1--1--1-----1-1-11---|

:::::::::::::::::::::::::::::::::::::::::::::::

gtr. 1
  Am7                    C             
|-0-0---0---00-0---0---|-0-0---0---00-0---0---|
|-1-1-1-1-1-11-1-1-1-1-|-1-1-1-1-1-11-1-1-1-1-|
|-0-0-0-0-0-00-0-0-0-0-|-0-0-0-0-0-00-0-0-0-0-|
|-2-2-2-2-2-22-2-2-2-2-|-2-2-2-2-2-22-2-2-2-2-|
|-0---0---0------0-0-0-|-3---3---3------3-3-3-|
|----------------------|----------------------|
  D u D u D Du u D u D   D u D u D Du u D u D

gtr. 2
  Am7                    C             
|-0--------------------|-0--------------------|
|-1--------------------|-1--------------------|
|-0--------------------|-0--------------------|
|-2--------------------|-2--------------------|
|-0--------------------|-3--------------------|
|----------------------|----------------------|

gtr. 3

|-----3-----2------5---|-----3-----2------0---|
|---3---------3------3-|---3---------3------3-|
|-0------0------0------0h2------2------2------|
|----------------------|----------------------|
|----------------------|----------------------|
|----------------------|----------------------|

gtr. 4

|----------------------|----------------------|
|----------------------|----------------------|
|----------------------|----------------------|
|-3--3--3-----3-3-33---|-6--6--6-----6-6-66---|

:::::::::::::::::::::::::::::::::::::::::::::::

+++++++++++++++
BRIDGE 2 (2:11)
+++++++++++++++

:::::::::::::::::::::::::::::::::::::::::::::::

gtr. 1
  C                                 
|-0----0---------0---0-|-0----0---------0---0-|
|-1----1---1---1-1-1-1-|-1----1---1---1-1-1-1-|
|-0----0---0---0-0-0-0-|-0----0---0---0-0-0-0-|
|-2----2---2---2-2-2-2-|-2----2---2---2---2-2-|
|-3--------3---3---3-3-|-3--------3---3---3-3-|
|----------------------|----------------------|
  D    D   D   D u D u   D    D   D   D u D u

gtr. 2

|----------------------|----------------------|
|----------------------|----------------0-----|
|----------------------|--------------0-------|
|----------------------|----------------------|
|----------------------|----------------------|
|----------------------|----------------------|

gtr. 4

|----------------------|----------------------|
|----------------------|----------------------|
|-1-1------3--3-3-3----|-1-1------1--1-1-1----|
|----------------------|----------------------|

:::::::::::::::::::::::::::::::::::::::::::::::

gtr. 1
  C                                 
|-0----0---------0---0-|-0----0---------0---0-|
|-1----1---1---1-1-1-1-|-1----1---1---1-1-1-1-|
|-0----0---0---0-0-0-0-|-0----0---0---0-0-0-0-|
|-2----2---2---2-2-2-2-|-2----2---2---2---2-2-|
|-3--------3---3---3-3-|-3--------3---3---3-3-|
|----------------------|----------------------|
  D    D   D   D u D u   D    D   D   D u D u

gtr. 2

|----------------------|----------------------|
|----------------------|-----------------0----|
|----------------------|-------0-------0------|
|----------------------|-0h2-2---0h2-2--------|
|----------------------|----------------------|
|----------------------|----------------------|

gtr. 4

|----------------------|----------------------|
|----------------------|----------------------|
|-1-1------3--3-3-3----|-1-1------1--1-1-1----|
|----------------------|----------------------|

:::::::::::::::::::::::::::::::::::::::::::::::

  Am7                    C             
|-0----0---------0---0-|-0----0---------0---0-|
|-1----1---1---1-1-1-1-|-1----1---1---1-1-1-1-|
|-0----0---0---0-0-0-0-|-0----0---0---0-0-0-0-|
|-2----2---2---2-2-2-2-|-2----2---2---2---2-2-|
|-0--------0---0---0-0-|-3--------3---3---3-3-|
|----------------------|----------------------|
  D    D   D   D u D u   D    D   D   D u D u

gtr. 2

|-----3----------3-----|-----2----------0-----|
|---3----------3-------|---3----------3-------|
|-0----------0---------|-0----------0---------|
|----------------------|----------------------|
|----------------------|----------------------|
|----------------------|----------------------|

gtr. 4

|----------------------|----------------------|
|----------------------|----------------------|
|----------------------|-1-1-1----3-3-3-3-----|
|-3-3-3----3-3-3-3-----|----------------------|

::::::::::::::::::::::::::::::::::::::::::::::::

  Am7                    C             
|-0----0---------0---0-|-0----0---------0---0-|
|-1----1---1---1-1-1-1-|-1----1---1---1-1-1-1-|
|-0----0---0---0-0-0-0-|-0----0---0---0-0-0-0-|
|-2----2---2---2-2-2-2-|-2----2---2---2---2-2-|
|-0--------0---0---0-0-|-3--------3---3---3-3-|
|----------------------|----------------------|
  D    D   D   D u D u   D    D   D   D u D u

gtr. 2

|-----3----------3-----|-----2----------0-----|
|---3----------3-------|---3----------3-------|
|-0----------0---------|-0----------0---------|
|----------------------|----------------------|
|----------------------|----------------------|
|----------------------|----------------------|

gtr. 4

|----------------------|----------------------|
|----------------------|----------------------|
|----------------------|-1-1-1----3-3-3-3-----|
|-3-3-3----3-3-3-3-----|----------------------|

::::::::::::::::::::::::::::::::::::::::::::::::

  Am7                    C             
|-0----0---------0---0-|-0----0---------0---0-|
|-1----1---1---1-1-1-1-|-1----1---1---1-1-1-1-|
|-0----0---0---0-0-0-0-|-0----0---0---0-0-0-0-|
|-2----2---2---2-2-2-2-|-2----2---2---2---2-2-|
|-0--------0---0---0-0-|-3--------3---3---3-3-|
|----------------------|----------------------|
  D    D   D   D u D u   D    D   D   D u D u

gtr. 2

|-----7----------7-----|-----7----------7-----|
|---8----------8---8---|---8----------8---8---|
|-7----------7---------|-7----------7---------|
|----------------------|----------------------|
|----------------------|----------------------|
|----------------------|----------------------|

|----------------------|----------------------|
|----------------------|----------------------|
|----------------------|-1-1-1----3-3-3-3-----|
|-3-3-3----3-3-3-3-----|----------------------|

:::::::::::::::::::::::::::::::::::::::::::::::

++++++++++++++++++
GUITAR SOLO (2:40)
++++++++++++++++++

:::::::::::::::::::::::::::::::::::::::::::::::

gtr. 3

|----------------------|----------------------|
|-7h8-8-7--------------|----------------------|
|---------7-----/9\7---|-7h9-9-7--------------|
|----------------------|---------7-------/9---|
|----------------------|----------------------|
|----------------------|----------------------|

:::::::::::::::::::::::::::::::::::::::::::::::

gtr. 3

|----------------------|----------------------|
|----------------------|---------------0-5/7--|
|----------------------|-------------0--------|
|-9h10-10-9-5-----/7---|-\2------0-0----------|
|----------------------|----------------------|
|----------------------|----------------------|

:::::::::::::::::::::::::::::::::::::::::::::::

gtr. 3

|----------------------|----------------------|
|-7h8p7h8-7------------|----------------------|
|-----------7---/9\7---|-7h9-9-7--------------|
|----------------------|---------7-------/9---|
|----------------------|----------------------|
|----------------------|----------------------|

:::::::::::::::::::::::::::::::::::::::::::::::

gtr. 3

|----------------------|----------------------|
|----------------------|---------------0------|
|----------------------|-------------0---0----|
|-9h10-10-9-5-----/7---|-\2------0-0----------|
|----------------------|----------------------|
|----------------------|----------------------|

:::::::::::::::::::::::::::::::::::::::::::::::

+++++++++++++++
CHORUS 3 (3:03)
+++++++++++++++

:::::::::::::::::::::::::::::::::::::::::::::::

gtr. 1
  G                      D             
|-3-3---3---33-3---3---|-2-2---2---22-2---2---|
|-3-3-3-3-3-33-3-3-3-3-|-3-3-3-3-3-33-3-3-3-3-|
|-0-0-0-0-0-00-0-0-0-0-|-2-2-2-2-2-22-2-2-2-2-|
|-0-0-0-0-0-00-0-0-0-0-|-0-0-0-0-0-00-0---0-0-|
|-2---2---2------2-2-2-|----------------------|
|-3--------------3-----|----------------------|
  D u D u D Du u D u D   D u D u D Du u D u D

gtr. 2
  G                      D             
|-3--------------------|-2--------------------|
|-3--------------------|-3--------------------|
|-0--------------------|-2--------------------|
|-0--------------------|-0--------------------|
|-2--------------------|----------------------|
|-3--------------------|----------------------|

gtr. 3

|-----3-----2------0---|-----3-----2------0---|
|---3---------3------3-|---3---------3------3-|
|-0------0------0------0h2------2------2------|
|----------------------|----------------------|
|----------------------|----------------------|
|----------------------|----------------------|

gtr. 4

|----------------------|----------------------|
|----------------------|----------------------|
|----------------------|----------------------|
|-6--6--6-----6-6-66---|-1--1--1-----1-1-11---|

:::::::::::::::::::::::::::::::::::::::::::::::

gtr. 1
  Am7                    C             
|-0-0---0---00-0---0---|-0-0---0---00-0---0---|
|-1-1-1-1-1-11-1-1-1-1-|-1-1-1-1-1-11-1-1-1-1-|
|-0-0-0-0-0-00-0-0-0-0-|-0-0-0-0-0-00-0-0-0-0-|
|-2-2-2-2-2-22-2-2-2-2-|-2-2-2-2-2-22-2-2-2-2-|
|-0---0---0------0-0-0-|-3---3---3------3-3-3-|
|----------------------|----------------------|
  D u D u D Du u D u D   D u D u D Du u D u D

gtr. 2
  Am7                    C             
|-0--------------------|-0--------------------|
|-1--------------------|-1--------------------|
|-0--------------------|-0--------------------|
|-2--------------------|-2--------------------|
|-0--------------------|-3--------------------|
|----------------------|----------------------|

gtr. 3

|-----3-----2------5---|-----3-----2------0---|
|---3---------3------3-|---3---------3------3-|
|-0------0------0------0h2------2------2------|
|----------------------|----------------------|
|----------------------|----------------------|
|----------------------|----------------------|

gtr. 4

|----------------------|----------------------|
|----------------------|----------------------|
|----------------------|----------------------|
|-3--3--3-----3-3-33---|-6--6--6-----6-6-66---|

:::::::::::::::::::::::::::::::::::::::::::::::

(Only singing, no instruments here... 3:14 into song)
(Music resumes at 3:26)

:::::::::::::::::::::::::::::::::::::::::::::::

gtr. 1
  G                                D   
|-3-3---3---33-3---3---|-3-3---3---22-2---2---|
|-3-3-3-3-3-33-3-3-3-3-|-3-3-3-3-3-33-3-3-3-3-|
|-0-0-0-0-0-00-0-0-0-0-|-0-0-0-0-0-22-2-2-2-2-|
|-0-0-0-0-0-00-0-0-0-0-|-0-0-0-0-0-00-0---0-0-|
|-2---2---2------2-2-2-|-2---2---2------------|
|-3--------------3-----|-3--------------------|
  D u D u D Du u D u D   D u D u D Du u D u D

:::::::::::::::::::::::::::::::::::::::::::::::

gtr. 1
  Am7                    C             
|-0-0---0---00-0---0---|-0-0---0---00-0---0---|
|-1-1-1-1-1-11-1-1-1-1-|-1-1-1-1-1-11-1-1-1-1-|
|-0-0-0-0-0-00-0-0-0-0-|-0-0-0-0-0-00-0-0-0-0-|
|-2-2-2-2-2-22-2-2-2-2-|-2-2-2-2-2-22-2-2-2-2-|
|-0---0---0------0-0-0-|-3---3---3------3-3-3-|
|----------------------|----------------------|
  D u D u D Du u D u D   D u D u D Du u D u D

:::::::::::::::::::::::::::::::::::::::::::::::
 
gtr. 1
  Am7                    C             
|-0-0---0---00-0---0---|-0-0---0---00-0---0---|
|-1-1-1-1-1-11-1-1-1-1-|-1-1-1-1-1-11-1-1-1-1-|
|-0-0-0-0-0-00-0-0-0-0-|-0-0-0-0-0-00-0-0-0-0-|
|-2-2-2-2-2-22-2-2-2-2-|-2-2-2-2-2-22-2-2-2-2-|
|-0---0---0------0-0-0-|-3---3---3------3-3-3-|
|----------------------|----------------------|
  D u D u D Du u D u D   D u D u D Du u D u D

:::::::::::::::::::::::::::::::::::::::::::::::

gtr. 4

|----------------------|----------------------|
|----------------------|-1-1-1-1-1-1-1-1-11-1-|
|----------------------|----------------------|
|----------------------|----------------------|

:::::::::::::::::::::::::::::::::::::::::::::::

++++++++++++++
CLOSING (3:45)
++++++++++++++

:::::::::::::::::::::::::::::::::::::::::::::::

  Am7                    C             
|-0----0---------0---0-|-0----0---------0---0-|
|-1----1---1---1-1-1-1-|-1----1---1---1-1-1-1-|
|-0----0---0---0-0-0-0-|-0----0---0---0-0-0-0-|
|-2----2---2---2-2-2-2-|-2----2---2---2---2-2-|
|-0--------0---0---0-0-|-3--------3---3---3-3-|
|----------------------|----------------------|
  D    D   D   D u D u   D    D   D   D u D u

gtr. 2

|-----3----------3-----|-----2----------0-----|
|---3----------3-------|---3----------3-------|
|-0----------0---------|-0----------0---------|
|----------------------|----------------------|
|----------------------|----------------------|
|----------------------|----------------------|

gtr. 4

|----------------------|----------------------|
|----------------------|----------------------|
|----------------------|-1-1-1----3-3-3-3-----|
|-3-3-3----3-3-3-3-----|----------------------|

::::::::::::::::::::::::::::::::::::::::::::::::

  Am7                    C             
|-0----0---------0---0-|-0----0---------0---0-|
|-1----1---1---1-1-1-1-|-1----1---1---1-1-1-1-|
|-0----0---0---0-0-0-0-|-0----0---0---0-0-0-0-|
|-2----2---2---2-2-2-2-|-2----2---2---2---2-2-|
|-0--------0---0---0-0-|-3--------3---3---3-3-|
|----------------------|----------------------|
  D    D   D   D u D u   D    D   D   D u D u

gtr. 2

|-----3----------3-----|-----2----------0-----|
|---3----------3-------|---3----------3-------|
|-0----------0---------|-0----------0---------|
|----------------------|----------------------|
|----------------------|----------------------|
|----------------------|----------------------|

gtr. 4

|----------------------|----------------------|
|----------------------|----------------------|
|----------------------|-1-1-1----3-3-3-3-----|
|-3-3-3----3-3-3-3-----|----------------------|

::::::::::::::::::::::::::::::::::::::::::::::::

  Am7                    C             
|-0----0---------0---0-|-0----0---------0---0-|
|-1----1---1---1-1-1-1-|-1----1---1---1-1-1-1-|
|-0----0---0---0-0-0-0-|-0----0---0---0-0-0-0-|
|-2----2---2---2-2-2-2-|-2----2---2---2---2-2-|
|-0--------0---0---0-0-|-3--------3---3---3-3-|
|----------------------|----------------------|
  D    D   D   D u D u   D    D   D   D u D u

gtr. 2

|-----7----------7-----|-----7----------7-----|
|---8----------8---8---|---8----------8---8---|
|-7----------7---------|-7----------7---------|
|----------------------|----------------------|
|----------------------|----------------------|
|----------------------|----------------------|

|----------------------|----------------------|
|----------------------|----------------------|
|----------------------|-1-1-1----3-3-3-3-----|
|-3-3-3----3-3-3-3-----|----------------------|

:::::::::::::::::::::::::::::::::::::::::::::::

  Am7                    C             
|-0----0---------0---0-|-0----0---------0---0-|
|-1----1---1---1-1-1-1-|-1----1---1---1-1-1-1-|
|-0----0---0---0-0-0-0-|-0----0---0---0-0-0-0-|
|-2----2---2---2-2-2-2-|-2----2---2---2---2-2-|
|-0--------0---0---0-0-|-3--------3---3---3-3-|
|----------------------|----------------------|
  D    D   D   D u D u   D    D   D   D u D u

gtr. 2

|-----3----------3-----|-----2----------0-----|
|---3----------3-------|---3----------3-------|
|-0----------0---------|-0----------0---------|
|----------------------|----------------------|
|----------------------|----------------------|
|----------------------|----------------------|

gtr. 4

|----------------------|----------------------|
|----------------------|----------------------|
|----------------------|-1-1-1----3-3-3-3-----|
|-3-3-3----3-3-3-3-----|----------------------|

::::::::::::::::::::::::::::::::::::::::::::::::

  Am7                    C             
|-0----0---------0---0-|-0----0---------0---0-|
|-1----1---1---1-1-1-1-|-1----1---1---1-1-1-1-|
|-0----0---0---0-0-0-0-|-0----0---0---0-0-0-0-|
|-2----2---2---2-2-2-2-|-2----2---2---2---2-2-|
|-0--------0---0---0-0-|-3--------3---3---3-3-|
|----------------------|----------------------|
  D    D   D   D u D u   D    D   D   D u D u

gtr. 2

|-----3----------3-----|-----2----------0-----|
|---3----------3-------|---3----------3-------|
|-0----------0---------|-0----------0---------|
|----------------------|----------------------|
|----------------------|----------------------|
|----------------------|----------------------|

gtr. 4

|----------------------|----------------------|
|----------------------|----------------------|
|----------------------|-1-1-1-1-1-3-3-3-3-3--|
|-3-3-3-3-3-3-33-3-----|----------------------|

::::::::::::::::::::::::::::::::::::::::::::::::

  Am7                    C             
|-0----0---------0---0-|-0----0---------0---0-|
|-1----1---1---1-1-1-1-|-1----1---1---1-1-1-1-|
|-0----0---0---0-0-0-0-|-0----0---0---0-0-0-0-|
|-2----2---2---2-2-2-2-|-2----2---2---2---2-2-|
|-0--------0---0---0-0-|-3--------3---3---3-3-|
|----------------------|----------------------|
  D    D   D   D u D u   D    D   D   D u D u

gtr. 2

|-----7----------7-----|-----7----------7-----|
|---8----------8---8---|---8----------8---8---|
|-7----------7---------|-7----------7---------|
|----------------------|----------------------|
|----------------------|----------------------|
|----------------------|----------------------|

gtr. 4

|----------------------|----------------------|
|----------------------|----------------------|
|----------------------|-1-1-1-1-1------------|
|-3-3-3-3-3-3-33-3-----|------------1--1--1---|

:::::::::::::::::::::::::::::::::::::::::::::::

Comments about this tab

seth_crusader1 - 2006-09-01

Nice job,with the diagrams and everything I can tell you took your time in making it accurate.


magic4hymn92 - 2006-10-09

What do the D's and u mean?


RcL_Raptor - 2006-11-26

Down strum and up strum


unuzedname - 2006-11-28

the tab is EXTREMELY close
but a bit off
you can stream a video of
how to play the song online
and you are pretty close


nbfan - 2006-12-24

On the acoustic guitar its C2, not Cadd9.


unidentified225 - 2007-01-21

C2 and Cadd9 are the same chord, just diff name.


Ethan Miklancic - 2007-03-21

Cadd9 is the same as C2 because...

C D E F G A B C D E F, etc...
1 2 3 4 5 6 7 8 9 10 11

Notice that the 1st and 8th step of the C major scale are the octaves, and the 2nd and 9th are also the same note.

C2 and Cadd9 are the same chord. The reason it is "add9" is because C major doesnt have the 7th, so in effect you are getting a C major and jsut sticking the 9th in it.


Add a comment/correction

Complimentary Christian Ringtones
Dadamobile and CGR have teamed up to bring your favorite Christian artists right to your phone. Sign up today and get 10 complementary ringtones!
Tab Country
Did you know CGR has a sister site w/ country guitar tabs? Well we do! Its called Tab Country. It has a great archive with a lot of country tabs.
Rockin Tabs
Are you looking for a site that has rock guitar tabs? Then Rockintabs.com is the place for you. It is a budding site with many rock guitar tabs. Submit your tab today.
Tab Gallery
Tab Gallery has a compilation of christian, rock, and country tabs all in one place. Come visit us.