Guitar Tabs
song title    band name

Join Us Today!

Don't strum alone...
be a part of the largest online Christian music community. Browse thousands of guitar tabs and chat w/ musicians like yourself.


It's Free!

This tab has been rated a 4.75 out of 5 for accuracy. (4 votes)Sorry, but you must be logged in to rate this tab.
Click here to log-in, or you can click here to register.
(Registration is free)

All songs owned by corresponding publishing company. If you make copies of any song on this website, be sure to report your usage to CCLI.
Submitted by: godz_gal

e------------------------------------------------------------------
B------------------------------------------------------------------
G------4-------4------4------4------4------------------------------
D----2-------2------2------2------2--------------------------------
A--4-------4------4------4------4-----4----------------------------
E------------------------------------------------------------------

e------------------------------------------------------------------
B------------------------------------------------------------------
G------4------4------4------4------4-------------------------------
D----2------2------2------2------2---------------------------------
A--0------0------0------0------0------0----------------------------
E------------------------------------------------------------------

e------------------------------------------------------------------
B------------------------------------------------------------------
G------4-------4------4------4------4------------------------------
D----2-------2------2------2------2--------------------------------
A--4-------4------4------4------4-----4----------------------------
E------------------------------------------------------------------

e------------------------------------------------------------------
B------------------------------------------------------------------
G------4------4------4------4------4-------------------------------
D----2------2------2------2------2---------------------------------
A------------------------------------------------------------------
E--0------0------0------0------0-----0-----------------------------

e------------------------------------------------------------------ 
B------------------------------------------------------------------
G------4-------4------4------4------4------------------------------
D----2-------2------2------2------2-------------------------------}:
A--4-------4------4------4------4-----4----------------------------:
E------------------------------------------------------------------:
                                                                   :play these 4x
e------------------------------------------------------------------:
B------------------------------------------------------------------:
G------4------4------4------4------4------------------------------}:
D----2------2------2------2------2---------------------------------
A--0------0------0------0------0------0----------------------------
E------------------------------------------------------------------

e------------------------------------------------------------------
B------------------------------------------------------------------
G-------2------2------2------2------2------------------------------
D-----0------0------0------0------0-------------------------------}:
A------------------------------------------------------------------:
E---2------2------2------2------2------2---------------------------:
                                                                   :play these 2x
e------------------------------------------------------------------:
B------------------------------------------------------------------:
G-------2------2------2------2------2------------------------------:
D-----0------0------0------0------0-------------------------------}:
A------------------------------------------------------------------
E---3------3------3------3------3------3---------------------------

Then there's a picking right before the chorus that I can't figure out, but you
can strum this as a substitute. (x221xx) 

Comments about this tab

c-money - 2006-04-02

i thnk you did a very good job with that song. it is one of my favorite songs from RK


summit619 - 2006-04-10

amazing job ive been looking for the perfect song and i just found it

god bless!


Twigguitar_1992 - 2006-04-22

chorus:
e|--------- listen to cd for
B|-3-3-3-2- strumming.
G|-2-4-0-2-
D|-0-4-0-2-
A|-0-2-2-0-
E|-----3--- GREAT TAB!!!
I LOVE THIS SONG.
I ALSO LOVE CHEESE,
BUT THAT DOESN'T MATTER.


Twigguitar_1992 - 2006-04-22

God bless.


Twigguitar_1992 - 2006-04-23

1 more thing...
before chorus:
e|--------------
B|--------------
G|--------------
D|-5555555-7777-
A|-5555555-7777-
E|-3333333-5555-


6strings21frets - 2006-12-17

Great tab!


skateforchrist - 2007-01-18

mmhmm nice man






skate fa life


Add a comment/correction

Complimentary Christian Ringtones
Dadamobile and CGR have teamed up to bring your favorite Christian artists right to your phone. Sign up today and get 10 complementary ringtones!
Tab Country
Did you know CGR has a sister site w/ country guitar tabs? Well we do! Its called Tab Country. It has a great archive with a lot of country tabs.
Rockin Tabs
Are you looking for a site that has rock guitar tabs? Then Rockintabs.com is the place for you. It is a budding site with many rock guitar tabs. Submit your tab today.
Tab Gallery
Tab Gallery has a compilation of christian, rock, and country tabs all in one place. Come visit us.