Guitar Tabs
song title    band name

Join Us Today!

Don't strum alone...
be a part of the largest online Christian music community. Browse thousands of guitar tabs and chat w/ musicians like yourself.


It's Free!

This tab has been rated a 5.00 out of 5 for accuracy. (5 votes)Sorry, but you must be logged in to rate this tab.
Click here to log-in, or you can click here to register.
(Registration is free)

All songs owned by corresponding publishing company. If you make copies of any song on this website, be sure to report your usage to CCLI.
Submitted by: HolyBlood8

Safety In The Darkness
Kids In The Way
Apparations Of Melody
Flicker Records

Standard Tuning

Tab by HolyBlood8

Verse
--------------------------------------------------------------
--------------------------------------------------------------
----------------------------------9999--11/11/11/11--4444--66- 
--666666--666666--666666--666666--9999--11/11/11/11--4444--66-  x2
--666666--666666--666666--666666--7777---9--9--9--9--2222--44-
--444444--444444--444444--444444------------------------------

Pre-Chorus
---------------------------------------------------------------
--9999999999--9999999999---------------------------------------
--8888888888--8888888888--------------4444444444---------------
--6666666666--6666666666--2222222222--4444444444---------------
--------------------------2222222222--2222222222---2h42--------
--------------------------0000000000---------------------2h42--

---------------------------------------------------------------
--9999999999--9999999999--7-7-7---4-4-4------------------------
--8888888888--8888888888---8-8-89--4-4-46p4h6------------------
--6666666666--6666666666---------------------------------------
---------------------------------------------------------------
---------------------------------------------------------------

Chorus

Guitar 1
---------------------------------------------------------------
---------------------------------------------------------------
---------------------------------------------------------------
--9-11--9-11--9-11--9-11--997766442----------------------------
--7--9--7--9--7--9--7--9---------------------------------------
---------------------------------------------------------------

Guitar 2
---------------------------------------------------------
-------------------------5-----7-----5-----7-------------
-------------------------4x12--6x12--4x12--6x12----------
---9----11----9----11----2-----4-----2-----4-------------
--9-9-11--11-9-9-11--11-------------------------997766442
---------------------------------------------------------
 

Chorus 2
Guitar 1
------------------------
------------------------
------------------------
--9-11--9-11--9-11--9-11
--7--9--7--9--7--9--7--9
------------------------

Guitar 2
-------------------------
-------------------------
-------------------------
---9----11----9----11----
--9-9-11--11-9-9-11--11--
-------------------------


Bridge

Guitar 1
------------------------   ----------- 
------------------------   -----------
--9-11--9-11--9-11--9-11   --4--------
--7--9--7--9--7--9--7--9   --4--2--4--
------------------------   --2--2--4--
------------------------   -----0--2--

Guitar 2
--76---76---76---76---76---76---76---76--    Use Delay                                            
-5--5-7--7-5--5-7--7-5--5-7--7-5--5-7--7-    b-12--
-----------------------------------------
-----------------------------------------
-----------------------------------------
-----------------------------------------

Guitar 1
-------------------------------------------------------------------------
-------------------------------------------------------------------------
--------------------4444444444444444-------------------------------------
--6666666666666666--4444444444444444--2222222222222222--4444444444444444-
--6666666666666666--2222222222222222--2222222222222222--4444444444444444-
--4444444444444444--------------------0000000000000000--2222222222222222-
PM_______________________________________________________________________

Guitar 2
--------------------------
--------------------------
--------8-----------------
--989989----646646--86468-
--------------------------
--------------------------

-------------------------------------------------------------------------
-------------------------------------------------------------------------
--------------------4444444444444444-------------------------------------
--6666666666666666--4444444444444444--2222222222222222--4444444444444444-
--6666666666666666--2222222222222222--2222222222222222--4444444444444444-
--4444444444444444--------------------0000000000000000--2222222222222222-

Outro/Chorus

Guitar 1
---------------------------------------
---------------------------------------
-----11--9--11-------------------------
--2--11--9--11--6----------------------
--0---9--7---9--6----------------------
--0-------------4----------------------

Guitar 2
---------------------------------------
---------------------------------------
---------------------------------------
--2--4--2--4--6------------------------
--2--4--2--4--6------------------------
--0--2--0--2--4------------------------

That's it 

Comments about this tab

HolyBlood8 - 2005-10-08

rate and comment this tab


ryan_grooms22 - 2005-10-18

looks awesome thanks
god bless
-ryan_grooms22


HolyBlood8 - 2005-11-14

HELLO PLEASE RATE THIS TAB


zero91 - 2006-01-24

Great tab! it sounds perfect.i love to play it!


sk8androck - 2006-02-20

Looks great man! It's nice to see some good kids in the way tabs. Could u post breaking the legs of sheep. Please


ice_wiz - 2006-05-02

I think they use octaves instead of powerchords.


Add a comment/correction

Complimentary Christian Ringtones
Dadamobile and CGR have teamed up to bring your favorite Christian artists right to your phone. Sign up today and get 10 complementary ringtones!
Tab Country
Did you know CGR has a sister site w/ country guitar tabs? Well we do! Its called Tab Country. It has a great archive with a lot of country tabs.
Rockin Tabs
Are you looking for a site that has rock guitar tabs? Then Rockintabs.com is the place for you. It is a budding site with many rock guitar tabs. Submit your tab today.
Tab Gallery
Tab Gallery has a compilation of christian, rock, and country tabs all in one place. Come visit us.