Guitar Tabs
song title    band name

Join Us Today!

Don't strum alone...
be a part of the largest online Christian music community. Browse thousands of guitar tabs and chat w/ musicians like yourself.


It's Free!

This tab has not yet been rated for accuracy.Sorry, but you must be logged in to rate this tab.
Click here to log-in, or you can click here to register.
(Registration is free)

All songs owned by corresponding publishing company. If you make copies of any song on this website, be sure to report your usage to CCLI.
Submitted by: woodyanfield_7

God of Hope, by Charlie Hall

The link didn't work on the other tab, so I had to figure this out on my own.
Here is the tab, it's capoed differently, but it's beautiful.

Capo on the 4th fret as follows.  Do not capo the low E string, this gives the
beautiful low E on the song.

e----C
B----C
G----C
D----C
A----C
E----X

Here's the tab: the numbers are not related to the capo, but the actual
guitar fret.  This means when you see a 4 on the capoed strings...it's an
open note.  Keep your fingers in a G-chord position.

Intro and starting verse: Set this hope...

                      G2                         G2
e---------------------x--------------------------x--------
B-----------------7---7----------------------7---7--------
G---------4-------4---4--------------4-------4---4--------
D------------4--------4-----------------4--------4--------
A---6--7--------------x--------6--7--------------x--------
E---------------------7--------------------------7--------




  D2/F#   C2        D2/A   G/B     C2        D2/A   G/B    C2        D2/A
e--x------7----------x------7------7----------x------7------7----------x
B--7------7----------7------7------7----------7------7------7----------7
G--6------4----------6------4------4----------6------4------4----------6
D--4------x----------4------x------x----------4------x------x----------4
A--4------7----------4------6------7----------4------6------7----------4
E--6------0----------x------x------0----------x------x------0----------x

That's it...enjoy.  Listen to the song to get when to play what part.

GOD BLESS
-JOE-

Comments about this tab

No comments/corrections found. Add your own

Complimentary Christian Ringtones
Dadamobile and CGR have teamed up to bring your favorite Christian artists right to your phone. Sign up today and get 10 complementary ringtones!
Tab Country
Did you know CGR has a sister site w/ country guitar tabs? Well we do! Its called Tab Country. It has a great archive with a lot of country tabs.
Rockin Tabs
Are you looking for a site that has rock guitar tabs? Then Rockintabs.com is the place for you. It is a budding site with many rock guitar tabs. Submit your tab today.
Tab Gallery
Tab Gallery has a compilation of christian, rock, and country tabs all in one place. Come visit us.