Guitar Tabs
song title    band name

Join Us Today!

Don't strum alone...
be a part of the largest online Christian music community. Browse thousands of guitar tabs and chat w/ musicians like yourself.


It's Free!

This tab has not yet been rated for accuracy.Sorry, but you must be logged in to rate this tab.
Click here to log-in, or you can click here to register.
(Registration is free)

All songs owned by corresponding publishing company. If you make copies of any song on this website, be sure to report your usage to CCLI.
Submitted by: Georgiaboy206

Artist: The David Crowder Band
Song: Come Awake
Album: A Collision

Incredible song off the new "A Collision" album.  I hope you enjoy.
I am not including a strum pattern.  It's not too hard to figure out.
Tuned Down 1/2 Step

Verse 1 Chords:
           
e--------------------------
B--------------------------
G-----0---0---0--0---0-----
D-----2---4---2--4---0-----       x2
A-----3---3---3--3---2-----
E-----x---x---x--x---3-----

e----x---x---x---x---x---x---x---x---
B----3---3---3---3---3---3---3---3---
G----0---2---0---2---0---2---0---2---
D----2---0---2---0---2---0---2---0---
A----3---x---3---x---3---x---3---x---
E----x---x---x---x---x---x---x---x---

Chorus:

e---3---2---3----
B---3---3---3----
G---0---2---0----             I like to play with the C as a C/G
D---0---0---2----     x4      just because it sounds full like the song
A---2---0---3----         
E---3---2--(3)---

Verse 2:

e------------------------------------
B------------------------------------
G-----0---0---0--0---0---0---0---0---
D-----2---4---2--4---0---4---2---0---   x2
A-----3---3---3--3---2---2---2---2---
E-----x---x---x--x---3---3---3---3---

e----x---x---x---x---x---x---x---x---
B----3---3---3---3---3---3---3---3---
G----0---2---0---2---0---2---0---2---
D----2---0---2---0---2---0---2---0---
A----3---x---3---x---3---x---3---x---
E----x---x---x---x---x---x---x---x---


Bridge:
There is so much stuff going on here that it is almost impossible to tab it out
or for one person to replicate its depth.  So you can either just do the alarm
clock by muting the strings or you could play out this melodic line...

e--7h8p7-----7--7--10---
B---------10------------

Chorus again


If you have any questions or comments, email me at Georgiaboy206@yahoo.com
God Bless.

Comments about this tab

chronicles1289 - 2006-08-23

The bridge is very easy actually, it's a repitition of the Verse:
e--------------------------
B--------------------------
G-----0---0---0--0---0-----
D-----2---4---2--4---0-----
A-----3---3---3--3---2-----
E-----x---x---x--x---3-----

it just sounds very fancy, if you ignore the ambience, you'll hear the rhythm guitar.


Add a comment/correction

Complimentary Christian Ringtones
Dadamobile and CGR have teamed up to bring your favorite Christian artists right to your phone. Sign up today and get 10 complementary ringtones!
Tab Country
Did you know CGR has a sister site w/ country guitar tabs? Well we do! Its called Tab Country. It has a great archive with a lot of country tabs.
Rockin Tabs
Are you looking for a site that has rock guitar tabs? Then Rockintabs.com is the place for you. It is a budding site with many rock guitar tabs. Submit your tab today.
Tab Gallery
Tab Gallery has a compilation of christian, rock, and country tabs all in one place. Come visit us.