Guitar Tabs
song title    band name

Join Us Today!

Don't strum alone...
be a part of the largest online Christian music community. Browse thousands of guitar tabs and chat w/ musicians like yourself.


It's Free!

This tab has been rated a 5.00 out of 5 for accuracy. (7 votes)Sorry, but you must be logged in to rate this tab.
Click here to log-in, or you can click here to register.
(Registration is free)

All songs owned by corresponding publishing company. If you make copies of any song on this website, be sure to report your usage to CCLI.
Submitted by: Scott L

#----------------------------------PLEASE NOTE---------------------------------#
#This file is the author's own work and represents their interpretation of the #
#song. You may only use this file for private study, scholarship, or research. #
#------------------------------------------------------------------------------#

                                    LIFESONG
                               by Casting Crowns
                         (From the 2005 Album LIFESONG)

Words and Music by Mark Hall


          C#                   A#m                  G#                   F#
      x 4 6 6 6 4          6 8 8 6 6 6          4 6 6 5 4 4          2 4 4 3 2 2

         D#m7                F#5/C#
      x 6 8 6 7 6          x 4 4 6 7 x

Gtr I (E A D G B E) - 'Clean'
Gtr II (E A D G B E) - 'Rhythm'
Gtr III (E A D G B E) - 'keyboard'
Gtr IV (E A D G B E) - 'high gain'
Gtr V (E A D G B E) - 'muted'
Gtr VI (E A D G B E) - 'piano'

Notes:

This is the version that was on the Heart of the Artist CD.  I'm not 
totally sure about all of the strumming patterns for some of the rhythm 
guitar part but it's pretty close.  All guitar parts are included as well
as the piano arranged for guitar.  Enjoy.

Scott


  Q=110

Intro

  C#         C#                  C#
 4/4
  Gtr III
  W          +W                  +W
  |           |                   |
  /           /                   /

                   Gtr II
                   PM             PM
  W           H    S S E S S E    S S E S S E S S E S S E
|----------|-------------------|--------------------------|
|----------|-------------------|--------------------------|
|----------|-------------------|--------------------------|
|----------|-------6-6-6-6-6-6-|--6-6-6-6-6-6-6-6-6-6-6-6-|
|----------|-------4-4-4-4-4-4-|--4-4-4-4-4-4-4-4-4-4-4-4-|
|----------|-------------------|--------------------------|


  C#
 4/4
  Gtr III
   W                               +W
   |                                |
   /               /

  Gtr I (with delay ~500 ms)
   S  S  E  S  S Q     Q      E    +W
|----------------9--------------|----------------------------|
|----------------------9--------|----------------------------|
|-10h11h13-10h11-------------10-|-(10)-----------------------|
|-------------------------------|----------------------------|
|-------------------------------|----------------------------|
|-------------------------------|----------------------------|
|					
| Gtr II
|  PM
|  S  S  E  S  S E S S E S S  E     S  S E S S E S S E S S E
|-------------------------------|----------------------------|
|-------------------------------|----------------------------|
|-------------------------------|----------------------------|
|--6--6--6--6--6-6-6-6-6-6-6--6-|---6--6-6-6-6-6-6-6-6-6-6-6-|
|--4--4--4--4--4-4-4-4-4-4-4--4-|---4--4-4-4-4-4-4-4-4-4-4-4-|
|-------------------------------|----------------------------|


  A#m
   W                             +W
   |                              |
   /                              /

   S  S  E  S  S Q     Q     E   +W
|----------------9-----------9-|-(9)--------------------------|
|----------------------9-------|------------------------------|
|-10h11h13-10h11---------------|------------------------------|
|------------------------------|------------------------------|
|------------------------------|------------------------------|
|------------------------------|------------------------------|
|
|  S  S  E  S  S E S S E S S E    S  S E S S E S S E S S E
|------------------------------|------------------------------|
|------------------------------|------------------------------|
|------------------------------|------------------------------|
|------------------------------|------------------------------|
|--8--8--8--8--8-8-8-8-8-8-8-8-|--8--8-8-8-8-8-8-8-8-8-8-8----|
|--6--6--6--6--6-6-6-6-6-6-6-6-|--6--6-6-6-6-6-6-6-6-6-6-6----|


  G#
   W                               +W
   |                                |
   /                                /

   S  S  E  S  S Q     Q      E    +W
|----------------9--------------|----------------------------|
|----------------------9--------|----------------------------|
|-10h11h13-10h11-------------11-|-(11)-----------------------|
|-------------------------------|----------------------------|
|-------------------------------|----------------------------|
|-------------------------------|----------------------------|
|
|  PM---------------------------------------------------------
|  S  S  E  S  S E S S E S S  E     S  S E S S E S S E S S E
|-------------------------------|----------------------------|
|-------------------------------|----------------------------|
|-------------------------------|----------------------------|
|-------------------------------|----------------------------|
|--6--6--6--6--6-6-6-6-6-6-6--6-|---6--6-6-6-6-6-6-6-6-6-6-6-|
|--4--4--4--4--4-4-4-4-4-4-4--4-|---4--4-4-4-4-4-4-4-4-4-4-4-|


  F#
   W                             +W
   |                              |
   /                              /

			              Verse 1
   S  S  E  S  S Q     Q     E   +W   
|----------------9-----------9-|-(9)-----------------------|
|----------------------9-------|---------------------------|
|-10h11h13-10h11---------------|---------------------------|
|------------------------------|---------------------------|
|------------------------------|---------------------------|
|------------------------------|---------------------------|
|
|--------------------------------------------------------|
|  S  S  E  S  S E S S E S S E    S  S E S S E S S E S S E
|------------------------------|---------------------------|
|------------------------------|---------------------------|
|------------------------------|---------------------------|
|------------------------------|---------------------------|
|--4--4--4--4--4-4-4-4-4-4-4-4-|--4--4-4-4-4-4-4-4-4-4-4-4-|
|--2--2--2--2--2-2-2-2-2-2-2-2-|--2--2-2-2-2-2-2-2-2-2-2-2-|

                                     
  C#
  W                         W
  |
  /

  W                         W
|-------------------------|-------------------------|
|-------------------------|-------------------------|
|-------------------------|-------------------------|
|-------------------------|-------------------------|
|-------------------------|-------------------------|
|-------------------------|-------------------------|
|
| PM
| S S E S S E S S E S S E   S S E S S E S S E S S E
|-------------------------|-------------------------|
|-------------------------|-------------------------|
|-------------------------|-------------------------|
|-6-6-6-6-6-6-6-6-6-6-6-6-|-6-6-6-6-6-6-6-6-6-6-6-6-|
|-4-4-4-4-4-4-4-4-4-4-4-4-|-4-4-4-4-4-4-4-4-4-4-4-4-|
|-------------------------|-------------------------|


  A#m
   W                          W
  Gtr IV
   <                          <
   W                          W
|-13-----------------------|-11-----------------------|
|--------------------------|--------------------------|
|--------------------------|--------------------------|
|--------------------------|--------------------------|
|--------------------------|--------------------------|
|--------------------------|--------------------------|
|
|  S S E S S E S S E S S E    S S E S S E S S E S S E
|--------------------------|--------------------------|
|--------------------------|--------------------------|
|--------------------------|--------------------------|
|--------------------------|--------------------------|
|--8-8-8-8-8-8-8-8-8-8-8-8-|--8-8-8-8-8-8-8-8-8-8-8-8-|
|--6-6-6-6-6-6-6-6-6-6-6-6-|--6-6-6-6-6-6-6-6-6-6-6-6-|


  F#
  W                         W
  <
  W                         W
|-9-----------------------|-------------------------|
|-------------------------|-------------------------|
|-------------------------|-------------------------|
|-------------------------|-------------------------|
|-------------------------|-------------------------|
|-------------------------|-------------------------|
|
| PM-------------------------------------------------
| S S E S S E S S E S S E   S S E S S E S S E S S E
|-------------------------|-------------------------|
|-------------------------|-------------------------|
|-------------------------|-------------------------|
|-------------------------|-------------------------|
|-4-4-4-4-4-4-4-4-4-4-4-4-|-4-4-4-4-4-4-4-4-4-4-4-4-|
|-2-2-2-2-2-2-2-2-2-2-2-2-|-2-2-2-2-2-2-2-2-2-2-2-2-|


  D#m7  A#m                   F#
  Gtr III
  Q     Q     +H              W
  |     |      |              |
  /     /      /              /

  Q     Q     +H              W
|-4h====6-----(6)-----------|-2-----------------------|
|---------------------------|-------------------------|
|---------------------------|-------------------------|
|---------------------------|-------------------------|
|---------------------------|-------------------------|
|---------------------------|-------------------------|
|
|---------------------------------------------------|
| S S E S S E  S  S E S S E   S S E S S E S S E S S E
|---------------------------|-------------------------|
|---------------------------|-------------------------|
|---------------------------|-------------------------|
|-8-8-8-8-8-8--8--8-8-8-8-8-|-8-8-8-8-8-8-8-8-8-8-8-8-|
|-6-6-6-6-6-6--6--6-6-6-6-6-|-6-6-6-6-6-6-6-6-6-6-6-6-|
|---------------------------|-------------------------|
				   

  C#
  Gtr III
   W                         +W
   |                          |
   /                          /

  Gtr I
   W                         +E    E E   E Q     +Q
|-!4-----------------------|-(4)-------------------------|
|-!4-----------------------|-(4)-----------4-----(4)-----|
|-!6-----------------------|-(6)---6-----6---------------|
|-!6-----------------------|-(6)-----6-------------------|
|-!4-----------------------|-(4)-------------------------|
|--------------------------|-----------------------------|
|
|  PM
|  S S E S S E S S E S S E    S  S E S S E S S E  S  S E
|--------------------------|-----------------------------|
|--------------------------|-----------------------------|
|--------------------------|-----------------------------|
|--6-6-6-6-6-6-6-6-6-6-6-6-|--6--6-6-6-6-6-6-6-6--6--6-6-|
|--4-4-4-4-4-4-4-4-4-4-4-4-|--4--4-4-4-4-4-4-4-4--4--4-4-|
|--------------------------|-----------------------------|


  A#m
   W                             +W
   |                              |
   /                              /

   H           +Q      +E    E   +E    E +H            +Q
|-!6-----------(6)-----(6)-----|-------------------------------|
|-!6-----------(6)-----(6)-----|-------6-(6)-----------(6)-----|
|-!6-----------(6)-----(6)---8-|-(8)---------------------------|
|-!8-----------(8)-----(8)-----|-------------------------------|
|-!8-----------(8)-----(8)-----|-------------------------------|
|-!6-----------(6)-----(6)-----|-------------------------------|
|
|  S S E S S E  S  S E  S  S E    S  S E  S  S E S S E  S  S E
|------------------------------|-------------------------------|
|------------------------------|-------------------------------|
|------------------------------|-------------------------------|
|------------------------------|-------------------------------|
|--8-8-8-8-8-8--8--8-8--8--8-8-|--8--8-8--8--8-8-8-8-8--8--8-8-|
|--6-6-6-6-6-6--6--6-6--6--6-6-|--6--6-6--6--6-6-6-6-6--6--6-6-|


  G#
   W                             +W
   |                              |
   /                              /

  Gtr I
   H           +Q      +E    E   +E    E H           +Q
|-!4-----------(4)-----(4)-----|-----------------------------|
|-!4-----------(4)-----(4)---4-|-(4)-------------------------|
|-!5-----------(5)-----(5)-----|-------6---------------------|
|-!6-----------(6)-----(6)-----|---------6-----------(6)-----|
|-!6-----------(6)-----(6)-----|-----------------------------|
|-!4-----------(4)-----(4)-----|-----------------------------|
|
|  PM---------------------------------------------------------
|  S S E S S E  S  S E  S  S E    S  S E S S E S S E  S  S E
|------------------------------|-----------------------------|
|------------------------------|-----------------------------|
|------------------------------|-----------------------------|
|------------------------------|-----------------------------|
|--6-6-6-6-6-6--6--6-6--6--6-6-|--6--6-6-6-6-6-6-6-6--6--6-6-|
|--4-4-4-4-4-4--4--4-4--4--4-4-|--4--4-4-4-4-4-4-4-4--4--4-4-|
					

  F#                         F#5/C#
   W                         W
   |                         |
   /                         /

                             Gtr IV
   W                         W
|-!2-----------------------|-------------------------|
|-!2-----------------------|-7-----------------------|
|-!3-----------------------|-6-----------------------|
|-!4-----------------------|-4-----------------------|
|-!4-----------------------|-4-----------------------|
|-!2-----------------------|-------------------------|
|
|--------------------------------------------------|
|  S S E S S E S S E S S E   S S E S S E S S E S S E
|--------------------------|-------------------------|
|--------------------------|-------------------------|
|--------------------------|-------------------------|
|--------------------------|-------------------------|
|--4-4-4-4-4-4-4-4-4-4-4-4-|-4-4-4-4-4-4-4-4-4-4-4-4-|
|--2-2-2-2-2-2-2-2-2-2-2-2-|-2-2-2-2-2-2-2-2-2-2-2-2-|


Chorus

  C#         C#           G#
  W          +W           W                   +W
  |           |           |                    |
  /           /           /                    /

  Gtr IV
  W                       E E E E E E  E  E    E E E E E E  E  E
|----------|------------|-8-8-8-9-9-9-11-11-|--8-8-8-9-9-9-11-11-|
|----------|------------|-9-9-9-9-9-9--9--9-|--9-9-9-9-9-9--9--9-|
|----------|------------|-------------------|--------------------|
|----------|------------|-------------------|--------------------|
|----------|------------|-------------------|--------------------|
|----------|------------|-------------------|--------------------|
|             W
|
| Gtr IV
| W          +W           E E E E E E  E  E    E E E E E E  E  E
|-4--------|-(4)--------|-------------------|--------------------|
|-6--------|-(6)--------|-------------------|--------------------|
|-6--------|-(6)--------|-------------------|--------------------|
|-6--------|-(6)--------|-6-6-6-6-6-6--6--6-|--6-6-6-6-6-6--6--6-|
|-4--------|-(4)--------|-6-6-6-6-6-6--6--6-|--6-6-6-6-6-6--6--6-|
|----------|------------|-4-4-4-4-4-4--4--4-|--4-4-4-4-4-4--4--4-|


  A#m                     F#
  W          +W           W                 +W
  |           |           |                  |
  /           /           /                  /

  W                       E E E E E E E E    E E E E E E E E
|----------|------------|-----------------|------------------|
|----------|------------|-6-6-6-7-7-7-9-9-|--6-6-6-7-7-7-9-9-|
|----------|------------|-6-6-6-6-6-6-6-6-|--6-6-6-6-6-6-6-6-|
|----------|------------|-----------------|------------------|
|----------|------------|-----------------|------------------|
|----------|------------|-----------------|------------------|
|             W
|
| W          +W           E E E E E E E E    E E E E E E E E
|-6--------|-(6)--------|-----------------|------------------|
|-6--------|-(6)--------|-----------------|------------------|
|-6--------|-(6)--------|-----------------|------------------|
|-8--------|-(8)--------|-4-4-4-4-4-4-4-4-|--4-4-4-4-4-4-4-4-|
|-8--------|-(8)--------|-4-4-4-4-4-4-4-4-|--4-4-4-4-4-4-4-4-|
|-6--------|-(6)--------|-2-2-2-2-2-2-2-2-|--2-2-2-2-2-2-2-2-|


  F#         G#         A#m        F#5/C#
  W          W          W          W
  |          |          |          |
  /          /          /          /

  W          W          W          W
|-2--------|-4--------|-6--------|------|
|-2--------|-4--------|-6--------|-7----|
|-3--------|-5--------|-6--------|-6----|
|-4--------|-6--------|-8--------|-4----|
|-4--------|-6--------|-8--------|-4----|
|-2--------|-4--------|-6--------|------|


			Bridge

  D#m7       F#         C#
  W          W           W                         +W
  |          |           |                          |
  /          /           /                          /

                        Gtr I
  W          W           S  S  E  S  S Q  Q   E    +W
|----------|----------|----------------9--------|-----------------|
|----------|----------|-------------------9-----|-----------------|
|----------|----------|-10h11h13-10h11-------10-|-(10)------------|
|----------|----------|-------------------------|-----------------|
|----------|----------|-------------------------|-----------------|
|----------|----------|-------------------------|-----------------|
|
| Gtr IV
| W          W           W                         +H     +Q   Q
|-6--------|-2--------|--4----------------------|--(4)----(4)--4--|
|-7--------|-2--------|--6----------------------|--(6)----(6)--6--|
|-6--------|-3--------|--6----------------------|--(6)----(6)--6--|
|-8--------|-4--------|--6----------------------|--(6)----(6)--6--|
|-6--------|-4--------|--4----------------------|--(4)----(4)--4--|
|----------|-2--------|-------------------------|-----------------|


  A#m                      A#m
   W                       +W
   |                        |
   /                        /

   S  S  E  S  S Q  Q  E   +W
|----------------9-----9-|-(9)----------|
|-------------------9----|--------------|
|-10h11h13-10h11---------|--------------|
|------------------------|--------------|
|------------------------|--------------|
|------------------------|--------------|
|
|  W                       +H     Q  Q
|--6---------------------|-(6)----6--6--|
|--6---------------------|-(6)----6--6--|
|--6---------------------|-(6)----6--6--|
|--8---------------------|-(8)----8--8--|
|--8---------------------|-(8)----8--8--|
|--6---------------------|-(6)----6--6--|


  G#                        G#
   W                          W
   |                          |
   /                          /

   S  S  E  S  S Q  Q   E    +W
|----------------9--------|---------------|
|-------------------9-----|---------------|
|-10h11h13-10h11-------11-|-(11)----------|
|-------------------------|---------------|
|-------------------------|---------------|
|-------------------------|---------------|
|
|  W                         +H     Q  Q
|--4----------------------|--(4)----4--4--|
|--4----------------------|--(4)----4--4--|
|--5----------------------|--(5)----5--5--|
|--6----------------------|--(6)----6--6--|
|--6----------------------|--(6)----6--6--|
|--4----------------------|--(4)----4--4--|


  F#                       F#5/C#
   W                        W
   |                        |
   /                        /

   S  S  E  S  S Q  Q  E   +W
|----------------9-----9-|-(9)----|
|-------------------9----|--------|
|-10h11h13-10h11---------|--------|
|------------------------|--------|
|------------------------|--------|
|------------------------|--------|
|
|  W                        W
|--2---------------------|--------|
|--2---------------------|-!7-----|
|--3---------------------|-!6-----|
|--4---------------------|-!4-----|
|--4---------------------|-!4-----|
|--2---------------------|--------|


Verse 2

  C#
  W                      W
|----------------------|----------------------|
|----------------------|----------------------|
|----------------------|----------------------|
|----------------------|----------------------|
|----------------------|----------------------|
|----------------------|----------------------|
|
| Gtr II
| PM-------------------------------------------
| S S E E S S E Q  S S   S S E E S S E Q  S S
|----------------------|----------------------|
|----------------------|----------------------|
|----------------------|----------------------|
|-6-6-6-6-6-6-6-6--6-6-|-6-6-6-6-6-6-6-6--6-6-|
|-4-4-4-4-4-4-4-4--4-4-|-4-4-4-4-4-4-4-4--4-4-|
|----------------------|----------------------|


  A#m
  W                      W
|----------------------|----------------------|
|----------------------|----------------------|
|----------------------|----------------------|
|----------------------|----------------------|
|----------------------|----------------------|
|----------------------|----------------------|
|
|-------------------------------------------|
| S S E E S S E Q  S S   S S E E S S E Q  S S
|----------------------|----------------------|
|----------------------|----------------------|
|----------------------|----------------------|
|----------------------|----------------------|
|-8-8-8-8-8-8-8-8--8-8-|-8-8-8-8-8-8-8-8--8-8-|
|-6-6-6-6-6-6-6-6--6-6-|-6-6-6-6-6-6-6-6--6-6-|


  F#
  W                      W
|----------------------|----------------------|
|----------------------|----------------------|
|----------------------|----------------------|
|----------------------|----------------------|
|----------------------|----------------------|
|----------------------|----------------------|
|
| PM-------------------------------------------
| S S E E S S E Q  S S   S S E E S S E Q  S S
|----------------------|----------------------|
|----------------------|----------------------|
|----------------------|----------------------|
|----------------------|----------------------|
|-4-4-4-4-4-4-4-4--4-4-|-4-4-4-4-4-4-4-4--4-4-|
|-2-2-2-2-2-2-2-2--2-2-|-2-2-2-2-2-2-2-2--2-2-|


  D#m7
   Q      +E   Q     Q  E     +W
|-11-----(11)-13-----9------|------------------------|
|-----------------------9---|-(9)--------------------|
|---------------------------|------------------------|
|---------------------------|------------------------|
|---------------------------|------------------------|
|---------------------------|------------------------|
|
|--------------------------------------------------|
|  S S E   E   S S E Q  S S    S  S E E S S E Q  S S
|---------------------------|------------------------|
|---------------------------|------------------------|
|--6-6-6---6---6-6-6-6--6-6-|--6--6-6-6-6-6-6-6--6-6-|
|--8-8-8---8---8-8-8-8--8-8-|--8--8-8-8-8-8-8-8--8-8-|
|---------------------------|------------------------|
|---------------------------|------------------------|


  C#
  Gtr III
   W                       +W
   |                        |
   /                        /

  Gtr I
   W                       +Q      +Q      E +E  Q
|-!4---------------------|-(4)-----(4)-----------------|
|-!4---------------------|-(4)-----(4)-----4-(4)-------|
|-!6---------------------|-(6)-----(6)-----------6-----|
|-!6---------------------|-(6)-----(6)-----------------|
|-!4---------------------|-(4)-----(4)-----------------|
|------------------------|-----------------------------|
|
| Gtr II
|  PM---------------------------------------------------
|  S S E E S S E Q   S S    S  S E  E  S S E  Q    S S
|------------------------|-----------------------------|
|------------------------|-----------------------------|
|------------------------|-----------------------------|
|--6-6-6-6-6-6-6-6---6-6-|--6--6-6--6--6-6-6--6----6-6-|
|--4-4-4-4-4-4-4-4---4-4-|--4--4-4--4--4-4-4--4----4-4-|
|------------------------|-----------------------------|
|
| Gtr V
|      PM-----------------------------------------------
|  E   E E E   E E E E      E    E  E  E   E  E  E E
|------------------------|-----------------------------|
|------------------------|-----------------------------|
|------6-6-5---5-6-------|-------6--6------5--6--------|
|------------------6-----|-------------6---------6-----|
|------------------------|-----------------------------|
|------------------------|-----------------------------|


  A#m
   W                       +W
   |                        |
   /                        /

   W                       +Q      +Q      E +E  Q
|-!6---------------------|-(6)-----(6)-----------------|
|-!6---------------------|-(6)-----(6)-----4-(4)-------|
|-!6---------------------|-(6)-----(6)-----------6-----|
|-!8---------------------|-(8)-----(8)-----------------|
|-!8---------------------|-(8)-----(8)-----------------|
|-!6---------------------|-(6)-----(6)-----------------|
|
|----------------------------------------------------|
|  S S E E S S E Q   S S    S  S E  E  S S E  Q    S S
|------------------------|-----------------------------|
|------------------------|-----------------------------|
|------------------------|-----------------------------|
|------------------------|-----------------------------|
|--8-8-8-8-8-8-8-8---8-8-|--8--8-8--8--8-8-8--8----8-8-|
|--6-6-6-6-6-6-6-6---6-6-|--6--6-6--6--6-6-6--6----6-6-|
|
|--------------------------------------------------|
|  E   E E E   E E E E      E    E  E  E   E  E  E E
|------------------------|-----------------------------|
|------------------------|-----------------------------|
|------6-6-5---5-6-------|-------6--6------5--6--------|
|------------------6-----|-------------6---------6-----|
|------------------------|-----------------------------|
|------------------------|-----------------------------|


  G#
   W                       +W
   |                        |
   /                        /

   W                       +Q      +Q      E +E  Q
|-!4---------------------|-(4)-----(4)-----------------|
|-!4---------------------|-(4)-----(4)-----4-(4)-------|
|-!5---------------------|-(5)-----(5)-----------6-----|
|-!6---------------------|-(6)-----(6)-----------------|
|-!6---------------------|-(6)-----(6)-----------------|
|-!4---------------------|-(4)-----(4)-----------------|
|
|  PM---------------------------------------------------
|  S S E E S S E Q   S S    S  S E  E  S S E  Q    S S
|------------------------|-----------------------------|
|------------------------|-----------------------------|
|------------------------|-----------------------------|
|------------------------|-----------------------------|
|--6-6-6-6-6-6-6-6---6-6-|--6--6-6--6--6-6-6--6----6-6-|
|--4-4-4-4-4-4-4-4---4-4-|--4--4-4--4--4-4-4--4----4-4-|
|
|      PM-----------------------------------------------
|  E   E E E   E E E E      E    E  E  E   E  E  E E
|------------------------|-----------------------------|
|------------------------|-----------------------------|
|------6-6-5---5-6-------|-------6--6------5--6--------|
|------------------6-----|-------------6---------6-----|
|------------------------|-----------------------------|
|------------------------|-----------------------------|


  F#                         F#5/C#
   W                         W
   |                         |
   /                         /

                             Gtr IV
   H           E E +Q        W
|-!2-----------------------|-----------------------|
|-!2-----------2-2-(2)-----|-7---------------------|
|-!3-----------3-3-(3)-----|-6---------------------|
|-!4-----------------------|-4---------------------|
|-!4-----------------------|-4---------------------|
|-!2-----------------------|-----------------------|
|
|------------------------------------------------|
|  S S E E S S E Q     S S   S S E E S S E Q   S S
|--------------------------|-----------------------|
|--------------------------|-----------------------|
|--------------------------|-----------------------|
|--------------------------|-----------------------|
|--4-4-4-4-4-4-4-4-----4-4-|-4-4-4-4-4-4-4-4---4-4-|
|--2-2-2-2-2-2-2-2-----2-2-|-2-2-2-2-2-2-2-2---2-2-|
|
|----------------------------------------------|
|  E   E E E   E E  E  E     E   E E E   E E E E
|--------------------------|-----------------------|
|--------------------------|-----------------------|
|------6-6-5---5-6---------|-----6-6-----5-6-------|
|-------------------6------|---------6-------6-----|
|--------------------------|-----------------------|
|--------------------------|-----------------------|


Chorus

  C#                      G#
  W          +W           W                   +W
  |           |           |                    |
  /           /           /                    /

                          Gtr IV
  W                       E E E E E E  E  E    E E E E E E  E  E
|----------|------------|-8-8-8-9-9-9-11-11-|--8-8-8-9-9-9-11-11-|
|----------|------------|-9-9-9-9-9-9--9--9-|--9-9-9-9-9-9--9--9-|
|----------|------------|-------------------|--------------------|
|----------|------------|-------------------|--------------------|
|----------|------------|-------------------|--------------------|
|----------|------------|-------------------|--------------------|
|             W
|
| Gtr IV
| W          +W           E E E E E E  E  E    E E E E E E  E  E
|-4--------|-(4)--------|-------------------|--------------------|
|-6--------|-(6)--------|-------------------|--------------------|
|-6--------|-(6)--------|-------------------|--------------------|
|-6--------|-(6)--------|-6-6-6-6-6-6--6--6-|--6-6-6-6-6-6--6--6-|
|-4--------|-(4)--------|-6-6-6-6-6-6--6--6-|--6-6-6-6-6-6--6--6-|
|----------|------------|-4-4-4-4-4-4--4--4-|--4-4-4-4-4-4--4--4-|


  A#m                     F#
  W          +W           W                 +W
  |           |           |                  |
  /           /           /                  /

  W                       E E E E E E E E    E E E E E E E E
|----------|------------|-----------------|------------------|
|----------|------------|-6-6-6-7-7-7-9-9-|--6-6-6-7-7-7-9-9-|
|----------|------------|-6-6-6-6-6-6-6-6-|--6-6-6-6-6-6-6-6-|
|----------|------------|-----------------|------------------|
|----------|------------|-----------------|------------------|
|----------|------------|-----------------|------------------|
|             W
|
| W          +W           E E E E E E E E    E E E E E E E E
|-6--------|-(6)--------|-----------------|------------------|
|-6--------|-(6)--------|-----------------|------------------|
|-6--------|-(6)--------|-----------------|------------------|
|-8--------|-(8)--------|-4-4-4-4-4-4-4-4-|--4-4-4-4-4-4-4-4-|
|-8--------|-(8)--------|-4-4-4-4-4-4-4-4-|--4-4-4-4-4-4-4-4-|
|-6--------|-(6)--------|-2-2-2-2-2-2-2-2-|--2-2-2-2-2-2-2-2-|


  F#         G#         A#m        F#5/C#
  W          W          W          W
  |          |          |          |
  /          /          /          /

  W          W          W          W
|-2--------|-4--------|-6--------|------|
|-2--------|-4--------|-6--------|-7----|
|-3--------|-5--------|-6--------|-6----|
|-4--------|-6--------|-8--------|-4----|
|-4--------|-6--------|-8--------|-4----|
|-2--------|-4--------|-6--------|------|


  D#m7       F#         C#
  W          W          W          +W
  |          |          |           |
  /          /          /           /

  W          W          W          +W
|-6--------|-2--------|-4--------|-(4)----|
|-7--------|-2--------|-6--------|-(6)----|
|-6--------|-3--------|-6--------|-(6)----|
|-8--------|-4--------|-6--------|-(6)----|
|-6--------|-4--------|-4--------|-(4)----|
|----------|-2--------|----------|--------|


Bridge 2 
  F#                      C#
   W                        W
   |                        |
   /                        /

  Gtr VI (piano)
   E  E  E  Q   E  E  E    +E   E  E  E  +H
|----------16--------16-|-(16)------------------|
|-13-14-16-14--13-14-14-|-(14)-14----14-(14)----|
|-----------------------|---------13------------|
|-----------------------|-----------------------|
|-----------------------|-----------------------|
|-----------------------|-----------------------|
 

  A#m                     G#
   W                        W
   |                        |
   /                        /

   E  E  E  Q   E  E  E    +E   E  E  E  +H
|----------16--------16-|-(16)------------------|
|-13-14-16-14--13-14-14-|-(14)-14----16-(16)----|
|-----------------------|---------13------------|
|-----------------------|-----------------------|
|-----------------------|-----------------------|
|-----------------------|-----------------------|


  F#          G#            A#m                G#
   H            H             W                W                +W
   |            |             |                |                 |
   /            /             /                /                 /

   E  E  E  E  +Q    E  E    +Q   E  Q  Q  E   E E E Q  E E E   +W
|-------------------------|------------------|----------------|--------|
|-11-14-14-13-(13)--------|----------------9-|-9------------9-|-(9)----|
|----------------------10-|-(10)----10--8----|-8---8------8-8-|-(8)----|
|-------------------11----|-------8----------|-6-6---6--6---6-|-(6)----|
|-------------------------|------------------|----------------|--------|
|-------------------------|------------------|----------------|--------|
 

  F#                      C#
   W                        W
   |                        |
   /                        /

   E  E  E  Q   E  E  E    +E   E  E  E  +H
|-----------------------|-----------------------|
|-13-14-14-14-----------|------------14-(14)----|
|----------13--13-11-13-|-(13)-13----13-(13)----|
|--------------------11-|-(11)----11------------|
|-----------------------|-----------------------|
|-----------------------|-----------------------|


  A#m                     G#
   W                        W
   |                        |
   /                        /

   E  E  E  Q   E  E  E    +E   E  E  E  +H
|-----------------------|-----------------------|
|-13-14-14-14-----------|------------14-(14)----|
|----------13--13-11-13-|-(13)-13----13-(13)----|
|--------------------11-|-(11)----11------------|
|-----------------------|-----------------------|
|-----------------------|-----------------------|


  F#       G#       A#m               G#
  H        H        W                 W                  +W
  |        |        |                 |                   |
  /        /        /                 /                   /

  E  E E Q   E Q    E  E E Q  E E E   E  E E Q   E E E    E  E E Q   E E E
|--------9---9-8--|--------9--9-8---|--------9---9-8---|---------9---9-8---|
|-9-11-9----------|-9-11-9--------9-|-9-11-9---------9-|--9-11-9---------9-|
|-----------------|-----------------|------------------|-------------------|
|-----------------|-----------------|------------------|-------------------|
|-----------------|-----------------|------------------|-------------------|
|-----------------|-----------------|------------------|-------------------|
|
|                                     Gtr I (with wah effect)
| W                 W                 E  E E E E E E E    E  E E E E E E E
|-----------------|-----------------|-4--4-4-4-4-4-4-4-|--4--4-4-4-4-4-4-4-|
|-----------------|-----------------|-4--4-4-4-4-4-4-4-|--4--4-4-4-4-4-4-4-|
|-----------------|-----------------|-5--5-5-5-5-5-5-5-|--5--5-5-5-5-5-5-5-|
|-----------------|-----------------|-6--6-6-6-6-6-6-6-|--6--6-6-6-6-6-6-6-|
|-----------------|-----------------|------------------|-------------------|
|-----------------|-----------------|------------------|-------------------|
|
|                                     Gtr II
|                                     PM---------------------------------|
| W                 W                 E  E E E E E E E    E  E E E E E E E
|-----------------|-----------------|------------------|-------------------|
|-----------------|-----------------|------------------|-------------------|
|-----------------|-----------------|------------------|-------------------|
|-----------------|-----------------|-6--6-6-6-6-6-6-6-|--6--6-6-6-6-6-6-6-|
|-----------------|-----------------|-6--6-6-6-6-6-6-6-|--6--6-6-6-6-6-6-6-|
|-----------------|-----------------|-4--4-4-4-4-4-4-4-|--4--4-4-4-4-4-4-4-|


  F#                C#                A#m               G#
  W                 W                 W                 W
  |                 |                 |                 |
  /                 /                 /                 /

  E E E E E E E E   E E E E E E E E   E E E E E E E E   E E E E E E E E
|-4-4-4-4-4-4-4-4-|-4-4-4-4-4-4-4-4-|-4-4-4-4-4-4-4-4-|-4-4-4-4-4-4-4-4-|
|-4-4-4-4-4-4-4-4-|-4-4-4-4-4-4-4-4-|-4-4-4-4-4-4-4-4-|-4-4-4-4-4-4-4-4-|
|-5-5-5-5-5-5-5-5-|-5-5-5-5-5-5-5-5-|-5-5-5-5-5-5-5-5-|-5-5-5-5-5-5-5-5-|
|-6-6-6-6-6-6-6-6-|-6-6-6-6-6-6-6-6-|-6-6-6-6-6-6-6-6-|-6-6-6-6-6-6-6-6-|
|-----------------|-----------------|-----------------|-----------------|
|-----------------|-----------------|-----------------|-----------------|
|
| Gtr II
| PM------------------------------------------------------------------|
| E E E E E E E E   E E E E E E E E   E E E E E E E E   E E E E E E E E
|-----------------|-----------------|-----------------|-----------------|
|-----------------|-----------------|-----------------|-----------------|
|-----------------|-6-6-6-6-6-6-6-6-|-----------------|-----------------|
|-4-4-4-4-4-4-4-4-|-6-6-6-6-6-6-6-6-|-8-8-8-8-8-8-8-8-|-6-6-6-6-6-6-6-6-|
|-4-4-4-4-4-4-4-4-|-4-4-4-4-4-4-4-4-|-8-8-8-8-8-8-8-8-|-6-6-6-6-6-6-6-6-|
|-2-2-2-2-2-2-2-2-|-----------------|-6-6-6-6-6-6-6-6-|-4-4-4-4-4-4-4-4-|


  F#      G#        A#m               G#
  H       H         W                 W                 +W
  |       |         |                 |                  |
  /       /         /                 /                  /

  Gtr II
  PM-------------------------------------------------------------------|
  E E E E E E E E   E E E E E E E E   E E E E E E E E    E E E E E E E E
|-----------------|-----------------|-----------------|------------------|
|-----------------|-----------------|-----------------|------------------|
|-----------------|-----------------|-----------------|------------------|
|-4-4-4-4-6-6-6-6-|-8-8-8-8-8-8-8-8-|-6-6-6-6-6-6-6-6-|--6-6-6-6-6-6-6-6-|
|-4-4-4-4-6-6-6-6-|-8-8-8-8-8-8-8-8-|-6-6-6-6-6-6-6-6-|--6-6-6-6-6-6-6-6-|
|-2-2-2-2-4-4-4-4-|-6-6-6-6-6-6-6-6-|-4-4-4-4-4-4-4-4-|--4-4-4-4-4-4-4-4-|



Chorus

  C#                      G#
  W          +W           W                   +W
  |           |           |                    |
  /           /           /                    /

                          Gtr IV
  W           W           E E E E E E  E  E    E E E E E E  E  E
|----------|------------|-8-8-8-9-9-9-11-11-|--8-8-8-9-9-9-11-11-|
|----------|------------|-9-9-9-9-9-9--9--9-|--9-9-9-9-9-9--9--9-|
|----------|------------|-------------------|--------------------|
|----------|------------|-------------------|--------------------|
|----------|------------|-------------------|--------------------|
|----------|------------|-------------------|--------------------|
|
| Gtr IV
| W          +W           E E E E E E  E  E    E E E E E E  E  E
|-4--------|-(4)--------|-------------------|--------------------|
|-6--------|-(6)--------|-------------------|--------------------|
|-6--------|-(6)--------|-------------------|--------------------|
|-6--------|-(6)--------|-6-6-6-6-6-6--6--6-|--6-6-6-6-6-6--6--6-|
|-4--------|-(4)--------|-6-6-6-6-6-6--6--6-|--6-6-6-6-6-6--6--6-|
|----------|------------|-4-4-4-4-4-4--4--4-|--4-4-4-4-4-4--4--4-|


  A#m                     F#
  W          +W           W                 +W
  |           |           |                  |
  /           /           /                  /

  W                       E E E E E E E E    E E E E E E E E
|----------|------------|-----------------|------------------|
|----------|------------|-6-6-6-7-7-7-9-9-|--6-6-6-7-7-7-9-9-|
|----------|------------|-6-6-6-6-6-6-6-6-|--6-6-6-6-6-6-6-6-|
|----------|------------|-----------------|------------------|
|----------|------------|-----------------|------------------|
|----------|------------|-----------------|------------------|
|
| W          +W           E E E E E E E E    E E E E E E E E
|-6--------|-(6)--------|-----------------|------------------|
|-6--------|-(6)--------|-----------------|------------------|
|-6--------|-(6)--------|-----------------|------------------|
|-8--------|-(8)--------|-4-4-4-4-4-4-4-4-|--4-4-4-4-4-4-4-4-|
|-8--------|-(8)--------|-4-4-4-4-4-4-4-4-|--4-4-4-4-4-4-4-4-|
|-6--------|-(6)--------|-2-2-2-2-2-2-2-2-|--2-2-2-2-2-2-2-2-|


  F#         G#         A#m        F#5/C#
  W          W          W          W
  |          |          |          |
  /          /          /          /

  W          W          W          W
|-2--------|-4--------|-6--------|------|
|-2--------|-4--------|-6--------|-7----|
|-3--------|-5--------|-6--------|-6----|
|-4--------|-6--------|-8--------|-4----|
|-4--------|-6--------|-8--------|-4----|
|-2--------|-4--------|-6--------|------|


  D#m7       F#         C#
  W          W          W          +W
  |          |          |           |
  /          /          /           /

  W          W          W          +W
|-6--------|-2--------|-4--------|-(4)----|
|-7--------|-2--------|-6--------|-(6)----|
|-6--------|-3--------|-6--------|-(6)----|
|-8--------|-4--------|-6--------|-(6)----|
|-6--------|-4--------|-4--------|-(4)----|
|----------|-2--------|----------|--------|


  G#                                       A#m
  W                   +W                   W          +W
  |                    |                   |           |
  /                    /                   /           /

  E E E E E E  E  E    E E E E E E  E  E
|-8-8-8-9-9-9-11-11-|--8-8-8-9-9-9-11-11-|----------|--------|
|-9-9-9-9-9-9--9--9-|--9-9-9-9-9-9--9--9-|----------|--------|
|-------------------|--------------------|----------|--------|
|-------------------|--------------------|----------|--------|
|-------------------|--------------------|----------|--------|
|-------------------|--------------------|----------|--------|
|
| E E E E E E  E  E    E E E E E E  E  E   W          +W
|-------------------|--------------------|-6--------|-(6)----|
|-------------------|--------------------|-6--------|-(6)----|
|-------------------|--------------------|-6--------|-(6)----|
|-6-6-6-6-6-6--6--6-|--6-6-6-6-6-6--6--6-|-8--------|-(8)----|
|-6-6-6-6-6-6--6--6-|--6-6-6-6-6-6--6--6-|-8--------|-(8)----|
|-4-4-4-4-4-4--4--4-|--4-4-4-4-4-4--4--4-|-6--------|-(6)----|


  F#                                   F#         G#
  W                 +W                 W          W
  |                  |                 |          |
  /                  /                 /          /

  E E E E E E E E    E E E E E E E E
|-----------------|------------------|----------|------|
|-6-6-6-7-7-7-9-9-|--6-6-6-7-7-7-9-9-|----------|------|
|-6-6-6-6-6-6-6-6-|--6-6-6-6-6-6-6-6-|----------|------|
|-----------------|------------------|----------|------|
|-----------------|------------------|----------|------|
|-----------------|------------------|----------|------|
|
| E E E E E E E E    E E E E E E E E   W          W
|-----------------|------------------|-2--------|-4----|
|-----------------|------------------|-2--------|-4----|
|-----------------|------------------|-3--------|-5----|
|-4-4-4-4-4-4-4-4-|--4-4-4-4-4-4-4-4-|-4--------|-6----|
|-4-4-4-4-4-4-4-4-|--4-4-4-4-4-4-4-4-|-4--------|-6----|
|-2-2-2-2-2-2-2-2-|--2-2-2-2-2-2-2-2-|-2--------|-4----|


  A#m        F#5/C#     D#m7       F#
  W          W          W          W
  |          |          |          |
  /          /          /          /

  W          W          W          W
|-6--------|----------|-6--------|-2----|
|-6--------|-7--------|-7--------|-2----|
|-6--------|-6--------|-6--------|-3----|
|-8--------|-4--------|-8--------|-4----|
|-8--------|-4--------|-6--------|-4----|
|-6--------|----------|----------|-2----|


    C#
     W                         +W
     |                          |
     /                          /

    Gtr I
     S  S  E  S  S Q  Q   E    +W
||-----------------9--------|-----------------|
||o-------------------9-----|-----------------|
||--10h11h13-10h11-------10-|-(10)------------|
||--------------------------|-----------------|
||o-------------------------|-----------------|
||--------------------------|-----------------|
|
|   Gtr IV
|    W                         +H     +Q   Q
||---4----------------------|--(4)----(4)--4--|
||o--6----------------------|--(6)----(6)--6--|
||---6----------------------|--(6)----(6)--6--|
||---6----------------------|--(6)----(6)--6--|
||o--4----------------------|--(4)----(4)--4--|
||--------------------------|-----------------|


  A#m
   W                       +W
   |                        |
   /                        /

   S  S  E  S  S Q  Q  E   +W
|----------------9-----9-|-(9)-----------|
|-------------------9----|---------------|
|-10h11h13-10h11---------|---------------|
|------------------------|---------------|
|------------------------|---------------|
|------------------------|---------------|
|
|  W                       +H     Q  Q
|--6---------------------|-(6)----6--6---|
|--6---------------------|-(6)----6--6---|
|--6---------------------|-(6)----6--6---|
|--8---------------------|-(8)----8--8---|
|--8---------------------|-(8)----8--8---|
|--6---------------------|-(6)----6--6---|


  G#
   W                         +W
   |                          |
   /                          /

   S  S  E  S  S Q  Q   E    +W
|----------------9--------|---------------|
|-------------------9-----|---------------|
|-10h11h13-10h11-------11-|-(11)----------|
|-------------------------|---------------|
|-------------------------|---------------|
|-------------------------|---------------|
|
|  W                         +H     Q  Q
|--4----------------------|--(4)----4--4--|
|--4----------------------|--(4)----4--4--|
|--5----------------------|--(5)----5--5--|
|--6----------------------|--(6)----6--6--|
|--6----------------------|--(6)----6--6--|
|--4----------------------|--(4)----4--4--|


  F#                       F#5/C#
   W                        W
   |                        |
   /                        /

   S  S  E  S  S Q  Q  E   +W
|----------------9-----9-|-(9)---------||--|
|-------------------9----|------------o||--|
|-10h11h13-10h11---------|-------------||--|
|------------------------|-------------||--|
|------------------------|------------o||--|
|------------------------|-------------||--|
|
|  W                        W
|--2---------------------|-------------||--|
|--2---------------------|--7---------o||--|
|--3---------------------|--6----------||--|
|--4---------------------|--4----------||--|
|--4---------------------|--4---------o||--|
|--2---------------------|-------------||--|


  C#                          C#
  W                           W
  |                           |
  /                           /

  Gtr I
  W                           W                        6x
|-9-----------------------||---------------------------||-*|
|-------------------------||o-------------------------o||-*|
|-------------------------||---------------------------||-*|
|-------------------------||---------------------------||-*|
|-------------------------||o-------------------------o||-*|
|-------------------------||---------------------------||-*|
|
| Gtr II
| PM------------------------------------------------|
| E S S S +E  S E S E S E     E S S S +E  S E S E S E  6x
|-------------------------||---------------------------||-*|
|-------------------------||o-------------------------o||-*|
|-6-6-6-6-(6)-6-6-6-6-6-6-||--6-6-6-6-(6)-6-6-6-6-6-6--||-*|
|-6-6-6-6-(6)-6-6-6-6-6-6-||--6-6-6-6-(6)-6-6-6-6-6-6--||-*|
|-4-4-4-4-(4)-4-4-4-4-4-4-||o-4-4-4-4-(4)-4-4-4-4-4-4-o||-*|
|-------------------------||---------------------------||-*|


Duration Legend
---------------
W - whole; H - half; Q - quarter; E - 8th; S - 16th; T - 32nd; 
X - 64th; 
a - acciaccatura + - note tied to previous; . - note dotted; 
.. - note double dotted
Uncapitalized letters represent notes that are staccato (1/2 duration)
Irregular groupings are notated above the duration line
Duration letters will always appear directly above the note/fret 
number it represents the duration for.  Duration letters with no fret 
number below them represent rests.  Multi-bar rests are notated in 
the form Wxn, where n is the number of bars to rest for.  Low melody 
durations appear below the staff

Tablature Legend
----------------
 h   - hammer-on
 p   - pull-off
 b   - bend
 pb  - pre-bend
 r   - bend release (if no number after the r, then release 
       immediately)
 /\  - slide into or out of (from/to "nowhere")
 s   - legato slide
 S   - shift slide
  - natural harmonic
[n]  - artificial harmonic
n(n) - tapped harmonic
 ~   - vibrato
 tr  - trill
 T   - tap
 TP  - trem. picking
 PM  - palm muting
\n/  - tremolo bar dip; n = amount to dip
 \n  - tremolo bar down
 n/  - tremolo bar up
/n\  - tremolo bar inverted dip
 =   - hold bend; also acts as connecting device for hammers/pulls
 <>  - volume swell (louder/softer)
 x   - on rhythm slash represents muted slash
 o   - on rhythm slash represents single note slash

Misc Legend
-----------
 |  - bar
||  - double bar
||o - repeat start
o|| - repeat end
*|  - double bar (ending)
 :  - bar (freetime)
 $  - Segno
 &  - Coda
Tempo markers -  = BPM(8/16=s8/s16), 
where s8 = swing 8ths, s16 = swing 16ths


*********************************************************
* Generated using Power Tab Editor by Brad Larsen -
 http://powertab.guitarnetwork.org *
*********************************************************

Comments about this tab

Falcon-fever777 - 2006-01-10

dude.......you........are.......AMAZING for typing something this detailed out. this is incredible. also it is accurate! I tip my hat to you and give you a 5.


tylestol - 2006-01-28

I agree it must have taken a while..great job with the accuracy


collegerocker17 - 2006-07-07

I haven't read it, but simply based on the amount of typing, good job....


Flippin4Jesus - 2006-07-24

you are insane man, and I love it, sweeeet job!!!!! 5 outa 5


de1515 - 2006-08-13

This is amazing!!!! I still haven't read it all, but for something this detailed, I give you a well deserved 5!


Add a comment/correction

Complimentary Christian Ringtones
Dadamobile and CGR have teamed up to bring your favorite Christian artists right to your phone. Sign up today and get 10 complementary ringtones!
Tab Country
Did you know CGR has a sister site w/ country guitar tabs? Well we do! Its called Tab Country. It has a great archive with a lot of country tabs.
Rockin Tabs
Are you looking for a site that has rock guitar tabs? Then Rockintabs.com is the place for you. It is a budding site with many rock guitar tabs. Submit your tab today.
Tab Gallery
Tab Gallery has a compilation of christian, rock, and country tabs all in one place. Come visit us.