Guitar Tabs
song title    band name

Join Us Today!

Don't strum alone...
be a part of the largest online Christian music community. Browse thousands of guitar tabs and chat w/ musicians like yourself.


It's Free!

This tab has not yet been rated for accuracy.Sorry, but you must be logged in to rate this tab.
Click here to log-in, or you can click here to register.
(Registration is free)

All songs owned by corresponding publishing company. If you make copies of any song on this website, be sure to report your usage to CCLI.
Submitted by: mrcleveland86

The David Crowder Band
Come Awake
A Collision, 2005
Written by David Crowder
Tabbed by Matt Cleveland

Tuning: Eb, Ab, Db, Gb, Bb, Eb
(half step tuning, as is most of crowder's songs)

Intro/Verse (after heart monitor)

eb|----------------------------------------------------------------------|
Bb|----------------------------------------------------------------------|
Gb|----------------------------------------------------------------------|
Db|-2-2-2-2-2-2-2-2-4-4-4-4-4-4-4-4-2-2-2-2-2-2-2-2-4-4-4-4-4-4-4-4------|
Ab|-3-3-3-3-3-3-3-3-3-3-3-3-3-3-3-3-3-3-3-3-3-3-3-3-3-3-3-3-3-3-3-3------|
Eb|----------------------------------------------------------------------|
    1 & 2 & 3 & 4 (and so forth)   

eb|----------------------------------------------------------------------|
Bb|-3-3-3-3-3-3-3-3-3-3-3-3-3-3-3-3-3-3-3-3-3-3-3-3-3-3-3-3-3-3-3-3------|
Gb|-0-0-0-0-0-0-0-0-0-0-0-0-0-0-0-0-0-0-0-0-0-0-0-0-0-0-0-0-0-0-0-0------|
Db|-0-0-0-0-0-0-0-0-0-0-0-0-0-0-0-0-0-0-0-0-0-0-0-0-0-0-0-0-0-0-0-0------|
Ab|-2-2-2-2-2-2-2-2-2-2-2-2-2-2-2-2-2-2-2-2-2-2-2-2-2-2-2-2-2-2-2-2------|
Eb|-3-3-3-3-3-3-3-3-3-3-3-3-3-3-3-3-3-3-3-3-3-3-3-3-3-3-3-3-3-3-3-3------| 

Pre-Chorus:
Em7 - Cadd9 - Em7 - Cadd9 - Cadd9
                      (just stay on this Cadd9 until the chorus)

Chorus:
G - D - Cadd9 - Cadd9 x 4
(hold the Cadd9 for another 4 counts)

Post Chorus (violin part before 2nd verse)
Em7 

Verse 2 is the same as Intro/Verse above

Pre Chorus (same)

Chorus (same)

Bridge:
Cadd9 (same Cadd9 from the end of the previous chorus, just continued)
  - Stay on Cadd9 until the end of the alarm clock effect, then it goes:

G - D - Cadd9 - Cadd9 - same as chours. x4

Song ends on the Cadd9


Pretty easy song really, good worship song with easy lyrics.
Any comments or corrections feel free.
And if anyone knows where to get some more of crowder's new songs, let 
me know!

Comments about this tab

mrcleveland86 - 2005-10-13

wow, I'm stupid, you end on a G, not the Cadd9, sorry all.


mrcleveland86 - 2005-11-08

sorry, another correction. the pre-chorus actually goes: Em7 - Cadd9 - D, then Em7 - D - Cadd9. then that Cadd9 goes into the chorus. only difference is throwin in that D. hope that helps!


Add a comment/correction

Complimentary Christian Ringtones
Dadamobile and CGR have teamed up to bring your favorite Christian artists right to your phone. Sign up today and get 10 complementary ringtones!
Tab Country
Did you know CGR has a sister site w/ country guitar tabs? Well we do! Its called Tab Country. It has a great archive with a lot of country tabs.
Rockin Tabs
Are you looking for a site that has rock guitar tabs? Then Rockintabs.com is the place for you. It is a budding site with many rock guitar tabs. Submit your tab today.
Tab Gallery
Tab Gallery has a compilation of christian, rock, and country tabs all in one place. Come visit us.