Guitar Tabs
song title    band name

Join Us Today!

Don't strum alone...
be a part of the largest online Christian music community. Browse thousands of guitar tabs and chat w/ musicians like yourself.


It's Free!

This tab has been rated a 2.83 out of 5 for accuracy. (6 votes)Sorry, but you must be logged in to rate this tab.
Click here to log-in, or you can click here to register.
(Registration is free)

All songs owned by corresponding publishing company. If you make copies of any song on this website, be sure to report your usage to CCLI.
Submitted by: sXcountry

Emery
The Question

"So Cold I Could See My Breath"

Db Tuning

Verse (listen to the song for rhythm)
Part 1 (G1)
eb|---------------------------|
Bb|---------------------------|
Gb|-/-77777-6666-99999-101010-| X3
Db|---xxxxx-xxxx-xxxxx--x-x-x-|
Ab|-/-55555-4444-77777--8-8-8-|
Db|---------------------------|

Part 2 (Both)
e|----------------------------|
B|----------------------------|
G|------11------------12------|
D|---11----(X4)----12----(X4)-| X2
A|-9------------10------------|
D|----------------------------|

Pre Chorus 1 (Both)		(G2) (After 1st Part)
e|----------|		e|--------|
B|----------|		B|--------|
G|-11-------|		G|-12~~~~~|
D|-11-(X12)-|		D|-12~~~~~|
A|--9-------|		A|-10~~~~~|
D|----------|		D|--------|

Chorus (G1) (A, B, A, C)
e|-----------A-----------|------B--------|-C-|
B|-----------------------|---------------|---|
G|-----------------------|---------------|---|
D|-55555---55-55---77777-|--55555--55-33-|-5-|
A|-55555---55-55---77777-|--55555--55-33-|-5-|
D|-55555---55-55---77777-|--55555--55-33-|-5-|

Chorus (G2) (A, B, A, C)
e|-----A---|----B----|-----C------|
B|---------|---------|------------|
G|-12------|-11------|------------|
D|--x-(X?)-|--x-(X?)-|-11-9-13-14-|
A|-10------|--9------|------------|
D|---------|---------|------------|

Verse 2 (Both)
SAME

Pre Chorus 2 (Both)		(G2) (After 1st Part)
e|--------------------|		e|--------|
B|----(11ís)----------|		B|--------|
G|-111111111111-------|		G|-12~~~~~|
D|-111111111111-(X14)-|		D|-12~~~~~|
A|--9-9-9-9-9-9------|		A|-10~~~~~|
D|-------------------|		D|--------|

Chorus 2 
SAME

Bridge
No guitars (keyboard, trust me)

Chorus 3
SAME (no section C for G2)

Outro (G1)			(G2)
e|-------------|		e|---------|
B|----PM-------|		B|---------|
G|-........----|		G|-11------|
D|-777777777-9-|		D|--x-(X?)-|
A|-777777777-9-|		A|--9------|
D|-777777777-9-|		D|---------|

Palm Mute the ....'s

I'm pretty sure this is very accurate...more from the New CD to Come...enjoy, 
and leave comments!

Comments about this tab

MusicalDictator - 2005-10-09

It's good but you might wanna check it over


sshine downn45 - 2006-01-22

you could play this song in regular drop d tuning... u dont have to go flat you would just have to play this tab one fret up from what it says.

if u didnt wanna tune it down


Adam K - 2006-02-15

I tabbed this song 2. It's in Drop C.It should come in soon.


Add a comment/correction

Complimentary Christian Ringtones
Dadamobile and CGR have teamed up to bring your favorite Christian artists right to your phone. Sign up today and get 10 complementary ringtones!
Tab Country
Did you know CGR has a sister site w/ country guitar tabs? Well we do! Its called Tab Country. It has a great archive with a lot of country tabs.
Rockin Tabs
Are you looking for a site that has rock guitar tabs? Then Rockintabs.com is the place for you. It is a budding site with many rock guitar tabs. Submit your tab today.
Tab Gallery
Tab Gallery has a compilation of christian, rock, and country tabs all in one place. Come visit us.