Guitar Tabs
song title    band name

Join Us Today!

Don't strum alone...
be a part of the largest online Christian music community. Browse thousands of guitar tabs and chat w/ musicians like yourself.


It's Free!

This tab has been rated a 2.75 out of 5 for accuracy. (4 votes)Sorry, but you must be logged in to rate this tab.
Click here to log-in, or you can click here to register.
(Registration is free)

All songs owned by corresponding publishing company. If you make copies of any song on this website, be sure to report your usage to CCLI.
Submitted by: jesseha

The Answer (Upstairs version)
Tabbed by : Jesse Ha
Author : Shane Barnard and Shane Everett

Tuning: Everything down a half step - Eb Ab Db Gb Bb Eb
Cut (foote) capo on second fret
so the tab will have a base of

---
---
222
222
222
---  automatically


Intro/Verse (Guitar 1)

Palm mute the whole phrase except for the hammers
-----x---x---x-x-----x---x---x-x-x-x-x-x-x-x-x-5-5---------------------
-----x---x---x-x-----x---x---x-x-x-x-x-x-x-x-x-5-5---------------------
-----9---8---8-9-----9---8---8-8-8-8-8-8-8-8-8-4-4---------2h4-4h6-6h9-
-----9---9---9-9-----9---9---9-9-9-9-9-9-9-9-9-2-2-2h4-4h6-------------
-----2---2---2-2-----2---2---2-2-9-9-9-9-9-9-9-2-2---------------------
/9-9-9-9-9-9-9-9-7-7-7-7-7-7-7-7-6-6-6-6-6-6-6-5-5--------------------- (x3)
     
                                                (Strumming)
-----x---x---x-x-----x---x---x-x-x-x-x-x-x-x-x----5--4--5-
-----x---x---x-x-----x---x---x-x-x-x-x-x-x-x-x----5--5--5-
-----9---8---8-9-----9---8---8-8-8-8-8-8-8-8-8----4--2--2-
-----9---9---9-9-----9---9---9-9-9-9-9-9-9-9-9----2--2--2-
-----2---2---2-2-----2---2---2-2-9-9-9-9-9-9-9----2--2--2-
/9-9-9-9-9-9-9-9-7-7-7-7-7-7-7-7-6-6-6-6-6-6-6----5--5--5- 

Intro/Verse (Guitar 2, easy, just strum to the beat)
-0-0-0-5-      -0-0-0-5-4-5-
-0-0-0-5-      -0-0-0-5-5-5-
-6-4-4-4-      -6-4-4-4-2-2-
-6-4-4-2-      -6-4-4-2-2-2-
-4-2-2-2-      -4-2-2-2-2-2-
-0-0-6-5- (x3) -0-0-6-5-5-5-

Intro/Verse (Guitar 2, hard, the right way)
------0-----0--------0------5-
------------------------------
---6-----4-----4---4----4-----
--6-6---4-4---4-4------2-2----
-4---4-2---2-----2--2-----2---
-------------6----6---5------- (x3)

                      (Strumming)
------0-----0--------0-5-4-5-
-----------------------5-5-5-
---6-----4-----4---4---4-2-2-
--6-6---4-4---4-4------2-2-2-
-4---4-2---2-----2--2--2-2-2-
-------------6----6----5-5-5-

Chorus (Both guitars)            
 E              A     B
-0-0--0-0-0-0-0-0-0-0-0-
-0-0--0-0-0-0-0-0-0-0-0-
-9-11-9-8-9-9-8-6-6-6-8-
-9-9--9-9-9-9-9-7-9-7-9-
-7-6--2-2-2-2-2-2-2-2-2-
-0-0--9-9-9-7-7-5-4-5-7-

If i knew how to play the mandolin i would put the part.
I'll update with the mandolin once i know how to play it.

Bridge (Half Time)
E, A, E, A, E, A, E, B


I know you guys wanna know this part =P

Bridge/Chorus Transition
-0-0--0-0-0-0-0-0-0-0-0-0-0-0-
-0-0--0-0-0-0-0-0-0-0-0-0-0-0-
-9-11-9-8-9-9-8-9-9-8-6-6-6-8-
-9-9--9-9-9-9-9-9-9-9-7-9-7-9-
-7-6--6-6-6-2-2-2-2-2-2-2-2-2-
-0-0--0-0-0-9-9-9-7-7-5-4-5-7-
                    ^
               Triplet Strum

Getting this strum down takes practice so get at it!

Comments about this tab

jesseha - 2006-01-08

Interesting.. someone rated this a 1 when it is accurate bc shane himself showed it to me


cvillejin - 2006-07-07

that's a lie becuz it's not accurate :) if you want to see the real guitar 2 part you go to youtube and watch the guy in the blue shorts play it


cvillejin - 2006-07-07

http://youtube.com/watch?v=A2MSgCH0qiU&search=shane%20the%20answer

that is how you play guitar 2...


Add a comment/correction

Complimentary Christian Ringtones
Dadamobile and CGR have teamed up to bring your favorite Christian artists right to your phone. Sign up today and get 10 complementary ringtones!
Tab Country
Did you know CGR has a sister site w/ country guitar tabs? Well we do! Its called Tab Country. It has a great archive with a lot of country tabs.
Rockin Tabs
Are you looking for a site that has rock guitar tabs? Then Rockintabs.com is the place for you. It is a budding site with many rock guitar tabs. Submit your tab today.
Tab Gallery
Tab Gallery has a compilation of christian, rock, and country tabs all in one place. Come visit us.