Guitar Tabs
song title    band name

Join Us Today!

Don't strum alone...
be a part of the largest online Christian music community. Browse thousands of guitar tabs and chat w/ musicians like yourself.


It's Free!

This tab has not yet been rated for accuracy.Sorry, but you must be logged in to rate this tab.
Click here to log-in, or you can click here to register.
(Registration is free)

All songs owned by corresponding publishing company. If you make copies of any song on this website, be sure to report your usage to CCLI.
Title:Worthless
Artist:Hangnail
Copyright 1999 BEC Recordings

This is a cool song from a really talented group of people. Enjoy

Riff1:
e----------------------------------------------
B----------------------------------------------
G---0-0-4-h0-7-h0-4-h0-7-h0-4-h0-7-------------
D-----------------------------------8----------
A-----------------------------------8--<16xs--
E-----------------------------------6----------

_______________________________________________
Riff 2:
e----------------------|-----------------------
B----------------------|-----------------------
G-------12-11-12-14-12-|14-12-11---------------
D-----9----------------|---------12-14-12-10-12
A--10------------------|double pick each note |
E----------------------|in this section       |

_______________________________________________
Verse: G5 E5 D5
C5 E5 D5  
(repeat)
_______________________________________________
Chorus: G5 C5 G5 D5 (4xs)

_______________________________________________
Order:
Riff 1 (4xs)
Riff 2
Verse
Chorus
Riff 1 (4xs)
Verse
Chorus
Chorus(this time bar the chords)
Chorus(Full Throttle)
End:Riff 1(only play the A#5 once)
_______________________________________________
 
There ya go. worthless by Hangnail. If you dont know this song then
go out and buy the CD because its awesome. This tab should be 99.9%
correct, but if Im wrong then please e-mail me at: Jp1982@webtv.net
L8eR kids and God Bless

Comments about this tab

No comments/corrections found. Add your own

Complimentary Christian Ringtones
Dadamobile and CGR have teamed up to bring your favorite Christian artists right to your phone. Sign up today and get 10 complementary ringtones!
Tab Country
Did you know CGR has a sister site w/ country guitar tabs? Well we do! Its called Tab Country. It has a great archive with a lot of country tabs.
Rockin Tabs
Are you looking for a site that has rock guitar tabs? Then Rockintabs.com is the place for you. It is a budding site with many rock guitar tabs. Submit your tab today.
Tab Gallery
Tab Gallery has a compilation of christian, rock, and country tabs all in one place. Come visit us.