Guitar Tabs
song title    band name

Join Us Today!

Don't strum alone...
be a part of the largest online Christian music community. Browse thousands of guitar tabs and chat w/ musicians like yourself.


It's Free!

This tab has been rated a 4.00 out of 5 for accuracy. (2 votes)Sorry, but you must be logged in to rate this tab.
Click here to log-in, or you can click here to register.
(Registration is free)

All songs owned by corresponding publishing company. If you make copies of any song on this website, be sure to report your usage to CCLI.
Submitted by: drrubberducky

Artist: Project 86
Album: ...And The Rest Will Follow
/-slide

Opening chords: D, E, F, A
Just kinda mess around with these while he sings

Then he comes in with power chords
E-----------
B-----------
G-7--9--10-9
D----------7
A-5--7--8--7
D----------7

Breaks off into 
G-7--
D----
A-5--
D----

Then coolness on low D string

D-0--14/0-

Then back to opening chords
He sings "cold hard dread...."
G-7--
D----
A-5--
D----
Then the coolness again on low D

D-0--14/0-

Then go into actually playing the coolness just not as background

Then we break into "your fate's still undecided"
And at the sweet "return, return, return" part

G-------------7-----------8---------10--------5-
D-0--------0-----0------0----0---------0--------
A-0--------0--5--0------0-6--0------8--0------3-
D-0--14/0--0-----0-14/0-0----0-14/0----0-14/0---

Back to chords
He sings "cold hard dread...."
G-7--
D----
A-5--
D----

Go right into loud low D thing slide

D-0-14/0--

Then we break into "your fate's still undecided"
And at the sweet "return, return, return" part

G-------------7-----------8---------10--------5-
D-0--------0-----0------0----0---------0--------
A-0--------0--5--0------0-6--0------8--0------3-
D-0--14/0--0-----0-14/0-0----0-14/0----0-14/0---

Then at last "return" play a couple times

G-7--5--7--------
D-7--5--7--0--5/8
A-5--3--5--0--5/8
D----------0--5/8

Then on last slide

D-5/8/3--
A-5/8/3--
D-5/8/3--

Then we go into cool solo thingy
I haven't figured it out yet but it is really simple sounding
Then "cold hard....."

D-0--3--8--5

Then "Once with a glimpse...."

D-0--3--8--5
A-0--3--8--5
D-0--3--8--5

And at the sweet "return, return, return" part

G-------------7-----------8---------10--------5-
D-0--------0-----0------0----0---------0--------
A-0--------0--5--0------0-6--0------8--0------3-
D-0--14/0--0-----0-14/0-0----0-14/0----0-14/0---

Comments about this tab

sXcountry - 2005-10-13

hey, good tab, the solo is a little off... i saw them live, yesterday, actually, and it's higher up on the finger board, i was pretty far away, but i noticed that...the rest is good, though...


thedemonhunter - 2005-10-24

Great tab for an awesome song. Someone please tab "The Hand, the furnace, the straight face", it's such an awesome song!


TFK...SO RAD... - 2005-12-27

Hey TheDemonHunter, im working on that song, cause i agree it is an awesome song so hopefully i can get around to finishing it

God Bless TFK...SO RAD...


jamnguitarkid - 2006-01-19

the cool soloy thing is open 4th string, 0 h10 h12 12
play around with that


SafeHaven - 2006-02-22

Here's what I play for the solo. It's not exact by no means, but it does fill in the space:

G)---------------------------------------------------10----10----10------
D)--10h12-12-12--10h12-12-12--10h12-12--10h12-12-12-----12----12----12---
A)-----------------------------------------------------------------------

G)-----------------------------------------------------------------------
D)--10h12-12-12--10h12-12-12--12p10-10-----------------------------------
A)--------------------------------------12-12-12-12-12b-12b-12b-12b------

Then on the higher pitched strings:

e)---------------------------------------------------13----13----13---------
B)--13h15-15-15--13h15-15-15--13h15-15--13h15-15-15-----15----15----15------
G)--------------------------------------------------------------------------

e)--------------------------------------------------------------------------
B)--13h15-15-15--13h15-15-15--15p13-13--------------13----13----13------15b-
G)--------------------------------------14-14-14-14----14----14----14-------


Under Kingdom A - 2006-09-11

Whats the tuning?


Add a comment/correction

Complimentary Christian Ringtones
Dadamobile and CGR have teamed up to bring your favorite Christian artists right to your phone. Sign up today and get 10 complementary ringtones!
Tab Country
Did you know CGR has a sister site w/ country guitar tabs? Well we do! Its called Tab Country. It has a great archive with a lot of country tabs.
Rockin Tabs
Are you looking for a site that has rock guitar tabs? Then Rockintabs.com is the place for you. It is a budding site with many rock guitar tabs. Submit your tab today.
Tab Gallery
Tab Gallery has a compilation of christian, rock, and country tabs all in one place. Come visit us.