Guitar Tabs
song title    band name

Join Us Today!

Don't strum alone...
be a part of the largest online Christian music community. Browse thousands of guitar tabs and chat w/ musicians like yourself.


It's Free!

This tab has been rated a 5.00 out of 5 for accuracy. (1 vote)Sorry, but you must be logged in to rate this tab.
Click here to log-in, or you can click here to register.
(Registration is free)

All songs owned by corresponding publishing company. If you make copies of any song on this website, be sure to report your usage to CCLI.
Title:Worthless
Artist:Hangnail
1999 BEC Recordings

After hearing this song on the radio I was hooked on Hangnail. This song
has got simple lyrics, but a great message.Enjoy!!!!
This is my first ever tabbing of a song!!!!

Riff 1
e----------------------------------------------
B----------------------------------------------
G---0-0-4-h0-7-h0-4-h0-7-h0-4-h0-7-------------
D----------------------------------------------
A----------------------------------------------
E----------------------------------------------

D-----8-8-8-8-8-8-8-8-8-8-8-8-8-8-8-8----------
A-----8-8-8-8-8-8-8-8-8-8-8-8-8-8-8-8----------
E-----6-6-6-6-6-6-6-6-6-6-6-6-6-6-6-6----------

Play this 4xs before going into riff 2
_______________________________________________
Riff 2
Guitar 1: G5 C5 G5 D5 (2xs)

Guitar 2:

e----------------------------------------------
B----------------------------------------------
G--------12-11-12-14-12-14-12-11---------------
D-----9--------------------------12-14-12-10-12
A--10-----------------(use up and down stroke)
E----------------------------------------------
2Xs
_______________________________________________

Verses:G5 E5 D5
C5 E5 D5
twice
_______________________________________________

Chorus:G5 C5 G5 D5 (play 4Xs the last 2Xs use
more strokes)
_______________________________________________

then you play Riff 1 another 4 Xs, the verse and chorus again and
then comes the quieter chorus where you just bar all the chords and
turn down a little, and finally you play the chorus one more time at
full bore and end the song with Riff 1. Thats the whole song.
        _______________________________________________    
    Easy huh!!!!If you want to play but dont know the song then you're
gonna have to buy the cd. Dont worry though because it will be well
worth your money. Hangnail is like my favorite band now next to FIF. 

Comments about this tab

bob k johnson - 2005-02-01

hey this is the most accurit tab iv ever seen
hangnail rocks
fif rest in peace


Add a comment/correction

Complimentary Christian Ringtones
Dadamobile and CGR have teamed up to bring your favorite Christian artists right to your phone. Sign up today and get 10 complementary ringtones!
Tab Country
Did you know CGR has a sister site w/ country guitar tabs? Well we do! Its called Tab Country. It has a great archive with a lot of country tabs.
Rockin Tabs
Are you looking for a site that has rock guitar tabs? Then Rockintabs.com is the place for you. It is a budding site with many rock guitar tabs. Submit your tab today.
Tab Gallery
Tab Gallery has a compilation of christian, rock, and country tabs all in one place. Come visit us.