Guitar Tabs
song title    band name

Join Us Today!

Don't strum alone...
be a part of the largest online Christian music community. Browse thousands of guitar tabs and chat w/ musicians like yourself.


It's Free!

This tab has been rated a 4.92 out of 5 for accuracy. (12 votes)Sorry, but you must be logged in to rate this tab.
Click here to log-in, or you can click here to register.
(Registration is free)

All songs owned by corresponding publishing company. If you make copies of any song on this website, be sure to report your usage to CCLI.
Submitted by: Cheese_Monkey

Artist: TFK
CD: Art of Breaking
Written By: Trevor McNevan

Hey guys, i took a little time to write out some of the electric guitar riffs
in the background of the song, the other tabs only had chords, so here goes.

Intro/Verse:

Guitar 1 (clean, capo 1):

e------------------0-------0-0---------------
B------0--0--------0-------3-3---------------
G--2-2-----2---1-1-1--1----2-2-1b2--2-2-6-4-2
D--2-2------2--2-2-2---4-2-0-0------4-4------ repeat
A--0-0---------2-2---------0-0------4-4------
E--------------0-0------------------2-2------

Guitar 2 (light distortion, no capo)

e--6----1----13-11-6----------1---s5
B-----------------------------------
G----2-3-------------7b---0-3---3--- you can mess arround with those
D------------------------------------ for the verses
A------------------------------------
E------------------------------------

Pre Chorus:

Guitar 3 (drop D, distortion)

e----------------------
B----------------------
G----------3-----------
D--0---1---3---3---0--1
A--0---1---1---3---0--1
D--0---1-------3---0--1

Chorus:

Guitar 3:

e------------
B------------
G--3---------
D--3--3--5--1 and repeat 
A--1--3--5--1
D-----3--5--1

Guitar 2:

e--13----------13-----------13-------------------13----------13-----------
B----11--11-11----11--11-11----11--11-11-13-15-11---11--11-11---11--11-11-
G-------------------------------------------------------------------------

e--13-11-11----13-11-11---13--------------------13------------------
B-----------11----------11---11--11-11-13-15-11---11--11-11-13-15-11
G-------------------------------------------------------------------

e--13-------------------13-11-11--13-11-11---13-11-11---13-11-11----13
B----11--11-11-13-15-11---------11--------11---------11----------11-11
G---------------------------------------------------------------------


Bridge:

Guitar 3:

e------------      -----
B------------      -----
G--5-----3---      -5---
D--5--1--3--3 X2   -5--1
A--3--1--1--3      -3--1 hold chord until chorus
D-----1-----3      ----1




well i think that just about covers the whole song, i belive it is correct, 
i spent about an hour and a half working on this tab, so i really hope it
helps you out! any questions, email me at timistheman99@hotmail.com

God Bless
Tim

Comments about this tab

ryan_grooms22 - 2005-11-03

sounds awesome thanks
God Bless
-ryan_grooms22


What5647 - 2005-11-16

very nice...transitions between chorus/bridge/etc. seem to be missing something, but easy enough to fill in.


Cheese_Monkey - 2005-11-24

ok bud if you can figure out what it's missing, please post it up so we can all make the corrections! glad you like it though! :D


krutchfan66 - 2006-01-13

hawt.very nice.danka sir.lol


Cheese_Monkey - 2006-01-16

hey guys just for clarification, whenever i wrote (x133xx) it's directly interchangable with a drop D (888xxx) or (888(10)xx) chord, feel free to take your pick.


sparky01 - 2006-02-10

Great job on the tabs!! I think there should be a 1 right after the s5, but thats just me, great job on the tabs though

e--6----1----13-11-6----------1---s5--1--
B----------------------------------------
G----2-3-------------7b---0-3---3--------
D----------------------------------------
A----------------------------------------
E----------------------------------------


Cheese_Monkey - 2006-03-23

ahh, good ear sparky ;)


akaukal - 2006-03-28

this is perfect! all i was playing before was the chords, but now i hav a pic between all 3 guitars. good job man






Patrick


acousticpunker - 2006-08-02

Don't they usually play stuff in drop D??


ice_wiz - 2006-08-18

This one has a guitar in drop D.


chipdog - 2007-02-08

Thanks for posting this. I attempted to synch up the Guitar 1&2 Intro parts and came up with a few differences:

Intro Guitar 1 (Capo 1)

e------------------------------------------0-00-0~~-------00-----------------------------
B--0-00-0~~---------0-00-0--00-0--00-------3-33-3~~-------33-2-2-2--2-22-2-2-------------
G--2-22-2~~-2h4-2---1-11-1--11-1--11-1-----2-22-2~~-1h2p1-22-2-2-2-2-22-2-2--s6-4-2-----
D--2-22-2~~-2---2-4-2-22-2--22-2--22---4---0-00-0~~-------00-4-4-4--4-44-2-4-------------
A--0-00-0~~---------2-22-2--22-2--22-----2-------------------4-4-4--4-44-4-4-------------
E-------------------0-00-0--00-0--00-------------------------2-2-2--2-22-2-2-------------


Intro Guitar 2 (Capo 1)

e--5~~~~-----------------0~~~~~------------1210---5-------------0------------s4---------
B----------------------------------------------------------------------------------------
G-------------------1-2----------------------------------6br---2-----------2-------------
D------------------------------------------------------------4---------------------------
A----------------------------------------------------------------------------------------
E----------------------------------------------------------------------------------------


Cheese_Monkey - 2007-02-22

hahaha that tab turned into a pile of mush man :P


rawk4god715 - 2007-06-03

Great job! i LUV TFK!!!!!! THEY RAWK!!!!!!
-rawk4god715


Add a comment/correction

Complimentary Christian Ringtones
Dadamobile and CGR have teamed up to bring your favorite Christian artists right to your phone. Sign up today and get 10 complementary ringtones!
Tab Country
Did you know CGR has a sister site w/ country guitar tabs? Well we do! Its called Tab Country. It has a great archive with a lot of country tabs.
Rockin Tabs
Are you looking for a site that has rock guitar tabs? Then Rockintabs.com is the place for you. It is a budding site with many rock guitar tabs. Submit your tab today.
Tab Gallery
Tab Gallery has a compilation of christian, rock, and country tabs all in one place. Come visit us.