Guitar Tabs
song title    band name

Join Us Today!

Don't strum alone...
be a part of the largest online Christian music community. Browse thousands of guitar tabs and chat w/ musicians like yourself.


It's Free!

This tab has been rated a 3.00 out of 5 for accuracy. (1 vote)Sorry, but you must be logged in to rate this tab.
Click here to log-in, or you can click here to register.
(Registration is free)

All songs owned by corresponding publishing company. If you make copies of any song on this website, be sure to report your usage to CCLI.
Submitted by: crcsbballbig14

this is the very first tab ive ever done. please tell me if i have made any mistakes and feel free
to correct them. 



e------------------------------------------------------------------------------
B---------------------------------18-18-16-16p-16-15h15-15(x3)-13(x7)--11(x7)-20
G-10-11-----------------8-10-11-8----------------------------------------------
D-------11-9h11p9-8h9p8--------------------------------------------------------
A------------------------------------------------------------------------------
E------------------------------------------------------------------------------


e--------------
B20(x2)-18(x2)-
G--------------
D--------------
A--------------
E--------------

Comments about this tab

metropolis4 - 2006-02-10

I think you're pretty close, but bring the notes from what you have marked as an F (b string 18th fret) to a D# on the 18th fret on the g string... also try adding these harmonies at the end part:
e-----------------------------------------------------------------
b-----------------------------------------------------------------
g-18-18-16-16-16\15------13---13^15---/---20--18--18--18---------
d----------------------/11-----(11)-----/-16--16--16--16--16-----
a----------------------------------------------------------------
e----------------------------------------------------------------

Also this song makes a lot more sense if you drop down a half step and play it in G instead of F# :)

~Peace


Add a comment/correction

Complimentary Christian Ringtones
Dadamobile and CGR have teamed up to bring your favorite Christian artists right to your phone. Sign up today and get 10 complementary ringtones!
Tab Country
Did you know CGR has a sister site w/ country guitar tabs? Well we do! Its called Tab Country. It has a great archive with a lot of country tabs.
Rockin Tabs
Are you looking for a site that has rock guitar tabs? Then Rockintabs.com is the place for you. It is a budding site with many rock guitar tabs. Submit your tab today.
Tab Gallery
Tab Gallery has a compilation of christian, rock, and country tabs all in one place. Come visit us.