Guitar Tabs
song title    band name

Join Us Today!

Don't strum alone...
be a part of the largest online Christian music community. Browse thousands of guitar tabs and chat w/ musicians like yourself.


It's Free!

This tab has been rated a 5.00 out of 5 for accuracy. (2 votes)Sorry, but you must be logged in to rate this tab.
Click here to log-in, or you can click here to register.
(Registration is free)

All songs owned by corresponding publishing company. If you make copies of any song on this website, be sure to report your usage to CCLI.
Submitted by: RighteousOSL

Author/Artist: Audio Adrenaline
Title: Free Ride
Album: Bloom
Tabbed by: AJM 
A more detailed version (with the solo)
of the great tab written by Matt Blystone.

Intro Riff:
------------------------------------------------------------------------------|
---------10---10--8--7---------------------------8--8--7--5-------------------|
---------9----9---7--7---------------------------7--7--7--6-------------------|
-----7-------------------x-x-x-x-x-x--------7-----------------x-x-x-x-x-x-----|
-7h9---------------------x-x-x-x-x-x---7h9--------------------x-x-x-x-x-x-----|
-------------------------x-x-x-x-x-x--------------------------x-x-x-x-x-x-----|
Play 4 times total.
 
Verse 1:
------------------------------------------------------------------------------|
------------------------------------------------------------------------------|
------------------------------------------------------------------------------|
-7-5-----------------------7-7p5----------------------------------------------|
-5-3-7-7------0-4-x-5-x-7--------7--------------------------------------------|
-----5-5--0h2---2-x-3-x-5-----------------------------------------------------|
 The mountain are high the valleys are low.

------------------------------------------------------------------------------|
------------------------------------------------------------------------------|
------------------------------------------------------------------------------|
-7-5-----------------------7-7p5----------------------------------------------|
-5-3-7-7-----0-4-x-5-x-7---------7--------------------------------------------|
-----5-5-0h2---2-x-3-x-5------------------------------------------------------|
 You are confused by which way to go.

------------------------------------------------------------------------------|
------------------------------------------------------------------------------|
------------------------------------------------------------------------------|
-7-5-----------------------7-7p5----------------------------------------------|
-5-3-7-7-----0-4-x-5-x-7---------7--------------------------------------------|
-----5-5-0h2---2-x-3-x-5------------------------------------------------------|
 I know there’s someone who’ll give you a hand;

------------------------------------------------------------------------------|
------------------------------------------------------------------------------|
------------------------------------------------------------------------------|
-7-5--------------------------------------------------------------------------|
-5-3-7-7-----0-4-x-5-x-7-7\---------------------------------------------------|
-----5-5-0h2---2-x-3-x-5-5\---------------------------------------------------|
 Lead you into the promised land.

Chorus:
-----------------------------|------------------------------------------------|
-----------------------------|------------------------------------------------|
-----------------------------|------------------2-4p2-------------------------|
------------------2-4p2------|-----------7-7--4-------4-----------------------|
-4-4--5-5--7-7--4-------4----|-4-4--5-5--5-5----------------------------------|
-2-2--3-3--5-5---------------|-2-2--3-3---------------------------------------|
 Come on and take a free ride.  Come on and get by my side.

------------------------------------------------------------------------------|
------------------------------------------------------------------------------|
------------------------------------------------------------------------------|
-----------7-7----------------------------------------------------------------|
-4-4--5-5--5-5----------------------------------------------------------------|
-2-2--3-3---------------------------------------------------------------------|
 Come on and take a free ride.

Intro Riff:
------------------------------------------------------------------------------|
-------10-10--8-7-------------------8-8-7-5-----------------------------------|
-------9---9--7-7-------------------7-7-7-6-----------------------------------|
-----7------------x-x-x-x-x-x-----7---------x-x-x-x-x-x-----------------------|
-7h9--------------x-x-x-x-x-x-7h9-----------x-x-x-x-x-x-----------------------|
------------------x-x-x-x-x-x---------------x-x-x-x-x-x-----------------------|
 Play 4 times total.

Verse 2:
------------------------------------------------------------------------------|
------------------------------------------------------------------------------|
------------------------------------------------------------------------------|
-7-5---------------------7-7p5------------------------------------------------|
-5-3-7-7-----0-4-x-5-x-7-------7----------------------------------------------|
-----5-5-0h2---2-x-3-x-5------------------------------------------------------|
 All over the country I've seen it the same,

------------------------------------------------------------------------------|
------------------------------------------------------------------------------|
------------------------------------------------------------------------------|
-7-5---------------------7-7p5------------------------------------------------|
-5-3-7-7-----0-4-x-5-x-7-------7----------------------------------------------|
-----5-5-0h2---2-x-3-x-5------------------------------------------------------|
 Nobody's winning at this type of game.

------------------------------------------------------------------------------|
------------------------------------------------------------------------------|
------------------------------------------------------------------------------|
-7-5---------------------7-7p5------------------------------------------------|
-5-3-7-7-----0-4-x-5-x-7-------7----------------------------------------------|
-----5-5-0h2---2-x-3-x-5------------------------------------------------------|
 We’ve got to do better we’ve got to take in,

------------------------------------------------------------------------------|
------------------------------------------------------------------------------|
---------------------------------------------------17-17-17-17-17--11-11-14---|
-7-5---------------------7-7p5------------------------------------------------|
-5-3-7-7-----0-4-x-5-x-7-------7----------------------------------------------|
-----5-5-0h2---2-x-3-x-5------------------------------------------------------|
 All of the answers are comin’ from Him.

Chorus:
------------------------------|-----------------------------------------------|
------------------------------|-----------------------------------------------|
------------------------------|---------------2-4p2---------------------------|
---------------2-4p2----------|---------7-7-4-------4-------------------------|
-4-4-5-5-7-7-4-------4--------|-4-4-5-5-5-5-----------------------------------|
-2-2-3-3-5-5------------------|-2-2-3-3---------------------------------------|
 Come on and take a free ride.  Come on and get by my side

------------------------------------------------------------------------------|
------------------------------------------------------------------------------|
------------------------------------------------------------------------------|
---------7-7\----------------------------------------14-14-14-14—13-13-12-12--|
-4-4-5-5-5-5\-----------------------------------------------------------------|
-2-2-3-3----------------------------------------------------------------------|
 Come on and take a free ride.                      

Intro Riff:
------------------------------------------------------------------------------|
-------10-10--8-7-------------------8-8-7-5-----------------------------------|
-------9---9--7-7-------------------7-7-7-6-----------------------------------|
-----7------------x-x-x-x-x-x-----7---------x-x-x-x-x-x-----------------------|
-7h9--------------x-x-x-x-x-x-7h9-----------x-x-x-x-x-x-----------------------|
------------------x-x-x-x-x-x---------------x-x-x-x-x-x-----------------------|
 Play 2 times total.

Solo:
Background Riff:
------------------------------------------------------------------------------|
------------------------------------------------------------------------------|
------------------------------------------------------------------------------|
-7-5---------------------7-7p5------------------------------------------------|
-5-3-7-7-----0-4-x-5-x-7-------7----------------------------------------------|
-----5-5-0h2---2-x-3-x-5------------------------------------------------------|
 Play 4 times total.

Solo Riff:
------------------------------------------------------------------------------|
------------------------------------------------------------------------------|
------------------------------------------------------------------------------|
-5--7--5—7v-5---------------------------—---10b-10b-10b-10b—10b --------------|
---------------0—3b-0--4--7-----------10-12---------------------12-12-12------|
------------------------------------------------------------------------------|

------------------------------------------------------------------------------|
-----------------------------------------------------------------15--13--10---|
--------------------------------11h12p11--------------------------------------|
-—--10-12-10-—----10-10------------------10-10-—----10------------------------|
-------------12p0-----------------------------12p0-----12v--------------------|
------------------------------------------------------------------------------|

------------------------------------------------------------------------------|
----10------------------------------------------------------------------------|
------12-10-----------------------------14------------------------------------|
------------12-10-------10-10-12-10-------------------------------------------|
------------------12-10------------12-10--------------------------------------|
------------------------------------------------------------------------------|

Chorus:
------------------------------|-----------------------------------------------|
------------------------------|-----------------------------------------------|
------------------------------|---------------2-4p2---------------------------|
---------------2-4p2----------|---------7-7-4-------4-------------------------|
-4-4-5-5-7-7-4-------4--------|-4-4-5-5-5-5-----------------------------------|
-2-2-3-3-5-5------------------|-2-2-3-3---------------------------------------|
 Come on and take a free ride.  Come on and get by my side.

------------------------------------------------------------------------------|
------------------------------------------------------------------------------|
------------------------------------------------------------------------------|
---------7-7\-----------------------------------------------------------------|
-4-4-5-5-5-5\-----------------------------------------------------------------|
-2-2-3-3----------------------------------------------------------------------|
 Come on and take a free ride.

Bridge:
--------------------|------------------|--------------------|-----------------|
--------------------|------------------|--------------------|-----------------|
--------------------|------------------|--------------------|-----------------|
-4-5-7-4-5-5-6-7-5-7|-4-5-3-3-3-5-7-5-7|-4-5-7-4-5-5-6-7-5-7|-----------------|
--------------------|------------------|--------------------|-----------------|
-2-3-5-2-3-3-4-5-3-5|-2-3-2-2-2-3-5-3-5|-2-3-5-2-3-3-4-5-3-5|-----------------|
 Play this 3X's         Play once.         Play 4X’s.

Last Chorus:
------------------------------------------------------------------------------|
------------------------------------------------------------------------------|
----------------------------------------------2-4p2---------------------------|
---------------2-4p2--------------------7-7-4-------4-------------------------|
-4-4-5-5-7-7-4-------4----------4-4-5-5-5-5-----------------------------------|
-2-2-3-3-5-5--------------------2-2-3-3---------------------------------------|
Come on and take a free ride. Come on and take a free ride.(Play 3 times total)

------------------------------------------------------------------------------|
------------------------------------------------------------------------------|
------------------------------------------------------------------------------|
---------------2-4p2--------------------7-7-----------------------------------|
-4-4-5-5-7-7-4-------4----------4-4-5-5-5-5-------------------------------7---|
-2-2-3-3-5-5--------------------2-2-3-3-----------------------------------5---|
 Come on and take a free ride.  Come on and take a free ride.           (End)

Comments about this tab

Kazan22 - 2006-02-01

the intro doesn't sound right


RighteousOSL - 2006-03-28

I can see where you're coming from. My ears used to think there was something wrong with the intro too (I observed it being the same on other tabs), but after repeated listening I realized that the dissonance is necessary.


rockin' ryan - 2009-01-09

This is the best guitar tab ever! I gave it a 5!
thanks.


Add a comment/correction

Complimentary Christian Ringtones
Dadamobile and CGR have teamed up to bring your favorite Christian artists right to your phone. Sign up today and get 10 complementary ringtones!
Tab Country
Did you know CGR has a sister site w/ country guitar tabs? Well we do! Its called Tab Country. It has a great archive with a lot of country tabs.
Rockin Tabs
Are you looking for a site that has rock guitar tabs? Then Rockintabs.com is the place for you. It is a budding site with many rock guitar tabs. Submit your tab today.
Tab Gallery
Tab Gallery has a compilation of christian, rock, and country tabs all in one place. Come visit us.