Guitar Tabs
song title    band name

Join Us Today!

Don't strum alone...
be a part of the largest online Christian music community. Browse thousands of guitar tabs and chat w/ musicians like yourself.


It's Free!

This tab has not yet been rated for accuracy.Sorry, but you must be logged in to rate this tab.
Click here to log-in, or you can click here to register.
(Registration is free)

All songs owned by corresponding publishing company. If you make copies of any song on this website, be sure to report your usage to CCLI.
Submitted by: Kondore

Dos
Chevelle
Point #1
©1999 Loeffler Publishing (SESAC) and Squint Music (SESAC)

I found chords for Dos on the site, but this tab is more detailed.
This is my first Tab, so bear with me.

Tuning: Drop D: D-a-d-g-b-e top to bottom

Verse: Clean

e|-------------------------------|
b|-------------------------------|
g|-------------------------------|
d|-------------------------------|
a|---0-0-0-0-0-2-2-2-2-----------|
D|--0-0-0-0-0-0-0-0-0------------|

It’s hard to tell you the timing; you just have to play with it.
He plays the verse a couple times before going to the chorus cords.

Chorus: This part is clean
e|-----------------------------------------------|
b|-----------------------------------------------|
g|-----------------------------------------------|
d|---5-5—3-3—8-8—7-7----5-5—0-0—3-3—7-7----------|
a|---5-5—3-3—8-8—7-7----5-5—0-0—3-3—7-7----------|
D|--5-5—3-3—8-8—7-7----5-5—0-0—3-3—7-7-----------|

When the drums kick in and he stops singing, play this.

e|------------------------------------------------------------|
b|------------------------------------------------------------|
g|------------------------------------------------------------|
d|---5-5—3-3—8-8—7-7-----5h7-----7p5-----5p3---7h8------------|
a|---5-5—3-3—8-8—7-7----5-5-----0-0-----3-3-----7-7-----------|
D|--5-5—3-3—8-8—7-7----5-5-----0-0-----3-3-----7-7------------|

Pete plays that through the rest of the song.
He doesn’t play the little hammer on pull off while he sings
until the guitar goes distorted.
The guitar goes distorted
But it’s basically the same as it was when it was clean.

Outro: distorted

e|----------------------------------------------------------|
b|----------------------------------------------------------|
g|----------------------------------------------------------|
d|---7----7--7-----4----4--4--------------------------------|
a|---5----5--0-----2----2--0--------------------------------|
D|--0----0--0-----0----0--0---------------------------------|

I’m still a bit unsure on the outro so you might need to play with it.

Comments about this tab

Kondore - 2006-01-06

the chords came out crukid...sorry about that...they are ment to be straight..so no need to pick them all...


Add a comment/correction

Complimentary Christian Ringtones
Dadamobile and CGR have teamed up to bring your favorite Christian artists right to your phone. Sign up today and get 10 complementary ringtones!
Tab Country
Did you know CGR has a sister site w/ country guitar tabs? Well we do! Its called Tab Country. It has a great archive with a lot of country tabs.
Rockin Tabs
Are you looking for a site that has rock guitar tabs? Then Rockintabs.com is the place for you. It is a budding site with many rock guitar tabs. Submit your tab today.
Tab Gallery
Tab Gallery has a compilation of christian, rock, and country tabs all in one place. Come visit us.