Guitar Tabs
song title    band name

Join Us Today!

Don't strum alone...
be a part of the largest online Christian music community. Browse thousands of guitar tabs and chat w/ musicians like yourself.


It's Free!

This tab has been rated a 4.00 out of 5 for accuracy. (7 votes)Sorry, but you must be logged in to rate this tab.
Click here to log-in, or you can click here to register.
(Registration is free)

All songs owned by corresponding publishing company. If you make copies of any song on this website, be sure to report your usage to CCLI.
Submitted by: Shaneathin86

Song: This Is a Heart Attack
Artist: Blindside
Album: The Great Depression
DRT Entertainment

Now I realize that this song could be played just as well in standard tuning 
but i find it easier to play in Drop D. so if u like standard better just 
subtract two from all of the lower D string notes.

Intro/Verse
e-------------------------------------------------------------------------
B-------------------------------------------------------------------------
G--5-55-5/--5-55-5/--5-55-5/--5-55-5/-------------------------------------
D--7-77-7/--7-77-7/--7-77-7/--7-77-7/-------------------------------------
A-------------------------------------------------------------------------
D-------------------------------------------------------------------------

Chorus
e-------------------------------------------------------------------------
B-------------------------------------------------------------------------
G-------------------------------------------------------------------------
D--7-777777-7-777777-7-777777-7-777777---5-10-5---------------------------
A--7-777777-7-777777-7-777777-7-777777---5-10-5---------------------------
D--7-777777-7-777777-7-777777-7-777777---5-10-5---------------------------

Fill
e-------------------------------------------------------------------------
B-------------------------------------------------------------------------
G-------------------------------------------------------------------------
D--2-44-2-44-2-55-2-55---2-44-2-44-2-55-2-55------------------------------
A--2-44-2-44-2-55-2-55---2-44-2-44-2-55-2-55------------------------------
D--2-44-2-44-2-55-2-55---2-44-2-44-2-55-2-55------------------------------

Fill 2
e-------------------------------------------------------------------------
B-------------------------------------------------------------------------
G-------------------------------------------------------------------------
D---5-7---5-7---5-7---5-7---5-7---5-7---5-7---5-7-------------------------
A---5-7---5-7---5-7---5-7---5-7---5-7---5-7---5-7-------------------------
D---5-7---5-7---5-7---5-7---5-7---5-7---5-7---5-7-------------------------

Outro Chorus
e-------------------------------------------------------------------------
B-------------------------------------------------------------------------
G-------------------------------------------------------------------------
D---5-7---777777777777------5-7---777777777777----------------------------
A---5-7---------------------5-7-------------------------------------------
D---5-7---------------------5-7-------------------------------------------

Easy song, sweet band. E-mails to Shaneathin86@hotmail.com

                                                -Shaner

Comments about this tab

Shaneathin86 - 2005-10-07

hey a little note, the first fill there should probably be palm muted

and uhh someone rated my tab with a 1... it may not be perfect but uhh its at least better than that, so help by rating my tab whatever u think it should be.


Dare - 2005-10-12

I don't have any corrections and I thought this is an awesome tab...rock on


Tobbbe - 2006-01-03

Hey man, nice tab!!! is really awsome=D Rock on dudes;)


akaukal - 2006-04-17

it sounds fine.


Add a comment/correction

Complimentary Christian Ringtones
Dadamobile and CGR have teamed up to bring your favorite Christian artists right to your phone. Sign up today and get 10 complementary ringtones!
Tab Country
Did you know CGR has a sister site w/ country guitar tabs? Well we do! Its called Tab Country. It has a great archive with a lot of country tabs.
Rockin Tabs
Are you looking for a site that has rock guitar tabs? Then Rockintabs.com is the place for you. It is a budding site with many rock guitar tabs. Submit your tab today.
Tab Gallery
Tab Gallery has a compilation of christian, rock, and country tabs all in one place. Come visit us.