Guitar Tabs
song title    band name

Join Us Today!

Don't strum alone...
be a part of the largest online Christian music community. Browse thousands of guitar tabs and chat w/ musicians like yourself.


It's Free!

This tab has been rated a 4.33 out of 5 for accuracy. (3 votes)Sorry, but you must be logged in to rate this tab.
Click here to log-in, or you can click here to register.
(Registration is free)

All songs owned by corresponding publishing company. If you make copies of any song on this website, be sure to report your usage to CCLI.
Submitted by: SafeHaven

Artist: Project 86
Album: ...And The Rest Will Follow
Copyright: Tooth And Nail 2005

~ = Let ring
x = mute

Shouldn't be too hard to figure out. It isn't that complicated a song, even though it might sound like it.


The Main riff. Variations of this are played throughout the song. Once the distortion comes in, another guitar is playing the 

7-6 chords and letting an open D ring out I think. Not sure. 

E)--------------------------------------
B)--------------------------------------
G)--------------------------------------
D)-------10-------------------10--------
A)----12-------------------12------12-11
D)--0--------0--10-12----0-------0------


E)--------------------------------------
B)--------------------------------------
G)--------------------------------------
D)-------10-------------------10----7-6-
A)----12-------------------12-------7-6-
D)--0--------0--10-12----0-------0--7-6-

Eventually this happens and both guitars ring out:

E)-----------
B)-----------
G)-----------
D)---7-6-0~--
A)---7-6-0~--
D)---7-6-0~--

Then the verse, which I'm not 100% about, but it sounds sufficient. Play first part, second part, first part, then third:

E)------------------------------
B)------------------------------
G)----14-14-14-14------------8--
D)--0-x--x--x--x--0--10-12-0-x--
A)--0-12-12-12-12-0--10-12-0-6--
D)--0-------------0--10-12-0----

E)-------------------------------
B)-------------------------------
G)----14-14-14-14------------10--
D)--0-x--x--x--x--0--10-12-0--x--
A)--0-12-12-12-12-0--10-12-0--8--
D)--0-------------0--10-12-0-----

E)----------------------------------------------------
B)----------------------------------------------------
G)----14-14-14-14-10-10-10-12-15~--15~-15~--15~-17-19-
D)--0-x--x--x--x--x--x--x--x--x----14~-x----14~-x--x--
A)--0-12-12-12-12-8--8--8--10-13~--13~-13~--13~-15-17-
D)--0-------------------------------------------------


The Chorus. It goes through this progression, then right back to the main riff:

E)-------------------------------
B)-------------------------------
G)---------14-14-14--------------
D)--0-0-0--x--x--x---8-8-8-8-8-8-
A)--0-0-0--12-12-12--8-8-8-8-8-8-
D)--0-0-0------------8-8-8-8-8-8-

E)--------------------------------------
B)--------------------------------------
G)---------14-14-14---------------------
D)--0-0-0--x--x--x---8-8-8--3-3x--3-3x--
A)--0-0-0--12-12-12--8-8-8--3-3x--3-3x--
D)--0-0-0------------8-8-8--3-3x--3-3x--


E)-------------------------------
B)-------------------------------
G)---------14-14-14--------------
D)--0-0-0--x--x--x---8-8-8-8-8-8-
A)--0-0-0--12-12-12--8-8-8-8-8-8-
D)--0-0-0------------8-8-8-8-8-8-


E)-----------------------------
B)-----------------------------
G)-----------------------------
D)--3-3-3-3-3-3-5-5-5-5-5-5-7-6
A)--3-3-3-3-3-3-5-5-5-5-5-5-7-6
D)--3-3-3-3-3-3-5-5-5-5-5-5-7-6

Then it goes back through the verse, chorus, then rings out to the bridge...which is the main riff, but it eventually changes 

to this, which is also the outro

D)-------10-----10-----10-----10-------12-----12-----12-----12--
A)----12-----12-----12-----12-------12-----12-----12-----12-----
D)--0------0------0------0--------0------0------0------0--------

Then, before the last chorus, a slide

E)--------------------------------
B)--------------------------------
G)--------------------------------
D)--0-0-0-0-0-0/12-12-12-12-12-12-
A)--0-0-0-0-0-0/12-12-12-12-12-12-
D)--0-0-0-0-0-0/12-12-12-12-12-12-

E)--
B)--
G)--
D)--
A)--
D)--

Comments about this tab

_Mat_ - 2005-11-10

the mainriff goes actually like this:
G----5---------5--
D--7---5-7---7----7-6
A-----------------7-6
D-0---0----0------7-6 etc.
and the 14 12
-- 12
12 is actually 12


_Mat_ - 2005-11-10

hmm in the verse that 12--14 is a power chord on the 12 fret
my english may not be perfect but this thing is now perfect


Add a comment/correction

Complimentary Christian Ringtones
Dadamobile and CGR have teamed up to bring your favorite Christian artists right to your phone. Sign up today and get 10 complementary ringtones!
Tab Country
Did you know CGR has a sister site w/ country guitar tabs? Well we do! Its called Tab Country. It has a great archive with a lot of country tabs.
Rockin Tabs
Are you looking for a site that has rock guitar tabs? Then Rockintabs.com is the place for you. It is a budding site with many rock guitar tabs. Submit your tab today.
Tab Gallery
Tab Gallery has a compilation of christian, rock, and country tabs all in one place. Come visit us.