Guitar Tabs
song title    band name

Join Us Today!

Don't strum alone...
be a part of the largest online Christian music community. Browse thousands of guitar tabs and chat w/ musicians like yourself.


It's Free!

This tab has been rated a 4.62 out of 5 for accuracy. (13 votes)Sorry, but you must be logged in to rate this tab.
Click here to log-in, or you can click here to register.
(Registration is free)

All songs owned by corresponding publishing company. If you make copies of any song on this website, be sure to report your usage to CCLI.
Submitted by: Joel Tan

Title: Jump Around (Get Your Praise On)
By: Planetshakers (Henry Seely and Mike Guglielmucci)
Album: Evermore
Track: 2

Note: There are already a few tabs for this song, but they're kinda dodgy so
i'm posting this one. This may not be 100% accurate but it definitely sounds
better. The tabs are what Henry plays minus the little funk solo in the intro
which will come soon. Spacing between the numbers is a rough guide to timing. 
Listen to the cd n try to match the tabs 2 the song b4 trying urself.

Intro (Use wah.. Lots of it.)
e|----------------------------------------------------------------------------
B|----------------------------------------------------------------------------
G|----------------------------------------------------------------------------
D|----------------3~~-------------5p3~~--------------------3~--7---9---10--12-
A|--3h5-5-3h5-3h5-----3h5-5-3h5p3------------3h5-5-3h5-3h5-----5---7---8---10-
E|----------------------------------------------------------------------------

Verse
e|-------------------------------------------------------------------------
B|-------------------------------------------------------------------------
G|-------------------------------------------------------------------------
D|--------------5p3p0--5p3p0---------------------5--3~~--------------------
A|----3---5-------------------3--5------3-5-5-3----------------------------
E|-------------------------------------------------------------------------

Pre-Chorus
e|------------------xx--------------------------------------------------
B|------------------xx--------------------------------------------------
G|------------------xx--------------------------------------------------
D|----5~~-----------xx-5~~----------------------------------------------
A|----5~~-----------xx-5~~---------------------------------------(12)/3-
E|----3~~-----------xx-3~~----------------------------------------------
      I'm nt gna...    I tink its time...        ... n jump arnd


Chorus
e|----------------------------------------------------------------------------
B|----------------------------------------------------------------------------
G|----------------------------------------------------------------------------
D|----------------3~~-------------5p3~~--------------------3~--7---9---10--12-
A|--3h5-5-3h5-3h5-----3h5-5-3h5p3------------3h5-5-3h5-3h5-----5---7---8---10-
E|----------------------------------------------------------------------------
                                   


Bridge
e|-------------------------------------------------------------------------
B|---------------------------------------repeat-----------------------------
G|-----------------------------------------as-------------------------------
D|-------------3-4-5------------3-4-5---required----------------------3-----
A|-----3h5---------------3h5------------------------------3--5--5--3----5~~-
E|--------------------------------------------------------------------------


First Chorus After Bridge (Heel ur wah pedal for a low sound)
e|---------------------------------------------------------------------------
B|---------------------------------------------------------------------------
G|---------------------------------------------------------------------------
D|----------------3~-----------------5p3~------------------3~---7--9--10-12~-
A|--3h5-5-3h5-3h5-3~--3h5-5-3h5p3----5p3~----3h5-5-3h5-3h5------5--7--8--10~-
E|--3h5-5-3h5-3h5-----3h5-5-3h5p3--------------------------------------------


~-Vibrato/Tremolo
x-mute
h-hammer on
p-pull off
/-slide
()-'ghost' note/quick note (dun fret for too long, juz a split second)

Comments about this tab

Ruined14 - 2006-02-06

yer looks pretty good looks mostly right...could be all right,
jsut a lil different 2 how i play it, a tip 4 less experience guitarists..

it's played starting at the not C whcich 3rd fret on the a string or
8th fret on the E string..i find it easier 2 play on the E string..jsut i dunno y

might b easier 4 u...n yer...the verse is pretty hard...

so u can just play..

A -----------------------------8---------10~
E ---8--10---------8-----10------10--8-------

4 it 2 sound decent it has 2 b played fairly fast though..it comes with practice..these r jsut a few things that helped me play it

thx n god bless


eazy-e - 2006-06-06

This Is HEAPS Better Then The Other One GOOD JOB HERE
...peace...


Add a comment/correction

Complimentary Christian Ringtones
Dadamobile and CGR have teamed up to bring your favorite Christian artists right to your phone. Sign up today and get 10 complementary ringtones!
Tab Country
Did you know CGR has a sister site w/ country guitar tabs? Well we do! Its called Tab Country. It has a great archive with a lot of country tabs.
Rockin Tabs
Are you looking for a site that has rock guitar tabs? Then Rockintabs.com is the place for you. It is a budding site with many rock guitar tabs. Submit your tab today.
Tab Gallery
Tab Gallery has a compilation of christian, rock, and country tabs all in one place. Come visit us.