Guitar Tabs
song title    band name

Join Us Today!

Don't strum alone...
be a part of the largest online Christian music community. Browse thousands of guitar tabs and chat w/ musicians like yourself.


It's Free!

This tab has been rated a 5.00 out of 5 for accuracy. (1 vote)Sorry, but you must be logged in to rate this tab.
Click here to log-in, or you can click here to register.
(Registration is free)

All songs owned by corresponding publishing company. If you make copies of any song on this website, be sure to report your usage to CCLI.
Submitted by: Shaneathin86

Artist: Blindside
Song: City Lights
Album: The Great Depression
DRT Entertainment

I didn't like this album very much at first but its rapidly growing on me. 
it's worth the few bucks i paid. heres a fun and easy song

Verse
e--------------------------------------------------------------------------
B--------------------------------------------------------------------------
G---------------------------------------------------------------------0----
D--5------5------2------0--------------5------5------2------0-------2------
A-7-(x8)-6-(x8)-3-(x8)-1-(x4)--10\----7-(x8)-6-(x8)-3-(x8)-1-(x4)----------
E-----------------------------2-----------------------------------2--------

Chorus
e--------------------------------------------------------------------------
B--------------------------------------------------------------------------
G--------------------------------------------------------------------------
D--5--5-4-5/7-4------------------------------------------------------------
A-----------------5/7----6-------------------------------------------------
E--------------------------------------------------------------------------

Super easy! Hope you all enjoy it, if u did why not e-mail me.. or questions,
comments, editorials, and other nonsense to Shaneathin86@hotmail.com

                                                    -Shaner

Comments about this tab

Dare - 2005-10-12

Good tab.Nice work.Keep it up.Rock on.


Tobbbe - 2006-01-04

very good tab!!! keep it up dude!!


Jahmaica - 2006-11-18

Thank you Guy
Jah Bless


Add a comment/correction

Complimentary Christian Ringtones
Dadamobile and CGR have teamed up to bring your favorite Christian artists right to your phone. Sign up today and get 10 complementary ringtones!
Tab Country
Did you know CGR has a sister site w/ country guitar tabs? Well we do! Its called Tab Country. It has a great archive with a lot of country tabs.
Rockin Tabs
Are you looking for a site that has rock guitar tabs? Then Rockintabs.com is the place for you. It is a budding site with many rock guitar tabs. Submit your tab today.
Tab Gallery
Tab Gallery has a compilation of christian, rock, and country tabs all in one place. Come visit us.