Guitar Tabs
song title    band name

Join Us Today!

Don't strum alone...
be a part of the largest online Christian music community. Browse thousands of guitar tabs and chat w/ musicians like yourself.


It's Free!

This tab has been rated a 4.50 out of 5 for accuracy. (2 votes)Sorry, but you must be logged in to rate this tab.
Click here to log-in, or you can click here to register.
(Registration is free)

All songs owned by corresponding publishing company. If you make copies of any song on this website, be sure to report your usage to CCLI.
Submitted by: lumpycustard

This is the tab for We Are One Tonight by Switchfoot.
The intro goes like this:

Guitar 1
E-3-----3-----3--------------
B----3-----1-----0-----------
G-------------------2--0-----  x6
D----------------------------
A----------------------------
E----------------------------

After 2x of this a second guitar part starts:

Guitar 2
G Dsus Em7 Cadd9 1x

Then the verse:

Guitars 1 and 2
Em7 Cadd9 x4

Prechorus:

D Em7 Cadd9 x2

Chorus:

G Dsus Em7 Cadd9 x5

Verse:

Em7 Cadd9 x4

Prechorus:

D Em7 Cadd9 x2

Chorus:

G Dsus Em7 Cadd9 x6

Prechorus:

Guitar 1
E-2------2--3-------3--0---------0--0-------0----
B-----3---------3--------------------------------
G---------------------------0-----------0--------
D------------------------------------------------
A------------------------------------------------
E------------------------------------------------

Guitar 2
D Em7 Cadd9 x2

Em (pause)

Guitar 3 (acoustic)

G D Em7 Cadd9 x2

Guitars 1 and 2

G Dsus Em7 Cadd9 x8 (fade)

Copyright Sony BMG Entertainment

Tell me what you think!

Comments about this tab

legendary_chin - 2006-05-04

the intro tab is:

e-3---3---3--------
B---3---1---0------
G-------------2-0--
D------------------
A------------------
D------------------


susbandgeek1990 - 2006-05-06

I'm pretty sure that is the excact same thing he had legendary chin


matt j t - 2006-05-16

Acaully, legendary chin's riff has dropped D tuning, while lumpycustard's has standard tuning. ;)


FIFPhreak - 2006-08-31

mabey its just me but I kinda hear the intro go like this...

e-7-7--------------
B-----7-7-5-5-4-2-0
G------------------
D------------------
A------------------
E------------------


powerzone-gat - 2006-09-30

Hi this is my version of the intro

e-3---------------------
B--3-3-1-1-0------------
G-----------2-0---------
D-----------------------
A-----------------------
E-----------------------


Switchfoot_ - 2007-05-15

Switchfoot-We Are One Tonight
Album: Nothing Is Sound
Copyright 2005 Columbia Records


Tuning: It sounds good in half/step down, but that's what I do,
you could have it in standard.

In the song, for the verse, they play these weird forms of Em7 and Cadd9.
Here is the chord chart.


Em7* Em7 Cadd9* D G
E--------3----------2--3
B---8----3-----8----3--3
G---7----0-----7----2--0
D---0----2-----0----0--0
A---7----2-----7----0--2
E---7----0-----8----0--3

Note: You might think the speacial chords for the verse (Em7*, Cadd9*,)are
wrong, but they are what they play (for the verse). If you don't believe
me, see video. and, the chords with the * beside them are the speacial
ones.

I'm sure this is at least 99.9% right, if not 100%.

Intro: G D Em7 Cadd9 x2

Verse: Em7* cadd9* (over and over for entire verse)

Pre-chorus: D Em7 Cadd9 x2

Chorus:G D Em7 Cadd9 x4 (or till the chorus ends)

Intro

Verse 2

Pre-Chorus

Chorus

Post-chorus: G D Em7 Cadd9

Pre-Chorus

Bridge: ("Let's slow the evening down..."
same chords as chorus)

Ending: Keep playing chorus, then fade out


Switchfoot_ - 2007-05-15

That's my version, and it's about the same as yours.


Add a comment/correction

Complimentary Christian Ringtones
Dadamobile and CGR have teamed up to bring your favorite Christian artists right to your phone. Sign up today and get 10 complementary ringtones!
Tab Country
Did you know CGR has a sister site w/ country guitar tabs? Well we do! Its called Tab Country. It has a great archive with a lot of country tabs.
Rockin Tabs
Are you looking for a site that has rock guitar tabs? Then Rockintabs.com is the place for you. It is a budding site with many rock guitar tabs. Submit your tab today.
Tab Gallery
Tab Gallery has a compilation of christian, rock, and country tabs all in one place. Come visit us.