Guitar Tabs
song title    band name

Join Us Today!

Don't strum alone...
be a part of the largest online Christian music community. Browse thousands of guitar tabs and chat w/ musicians like yourself.


It's Free!

This tab has been rated a 1.00 out of 5 for accuracy. (1 vote)Sorry, but you must be logged in to rate this tab.
Click here to log-in, or you can click here to register.
(Registration is free)

All songs owned by corresponding publishing company. If you make copies of any song on this website, be sure to report your usage to CCLI.
Submitted by: lumpycustard

Hey guys! This is my first tab. Its meant to be 
played on piano, so I learned it on piano first then
transferred it to guitar. Enjoy!

Capo fret 2

E-3-----3-----3-----3-----0-----0------0-----0------
B-5-----5-----5-----5-----1-----1------1-----1------
G----0-----0-----0-----0----------------------------
D----------------------------3------3-----3-----3---
A---------------------------------------------------
E---------------------------------------------------

E-3-----3-----3-----3-----0-----0-------------------
B-5-----5-----5-----5-----1-----1------3-----3------
G----0-----0-----0-----0---------------5--0--5--0---
D----------------------------3------3-----4-----4---
A---------------------------------------------------
E---------------------------------------------------

Thatís all! Iím not sure if itís 100% accurate, but 
It sounds right to me! Correct me if Iím wrong!

Switchfoot
Copyright Sony BMG music entertainment

Comments about this tab

Jimbob773 - 2006-06-19

This sounds pretty good to me. I don't know if that's what they're playing through the rest of the song or not, but I like this better than the other tabs.


trudel2k5 - 2006-06-29

Hey...yea well thats realy wrong...switchfoot never! (or almost to never in "Adding to the noise they capo 1) use a capo....anyways here is the correct intro

e:-------------------------------------------------
B:-10----10----10----10----------------------------
G:-11----11----11----11----11----11----11----11----
D:----12----12----12----12-12----12----12----12----
A:----------------------------10----10----10----10-
E:-------------------------------------------------


Add a comment/correction

Complimentary Christian Ringtones
Dadamobile and CGR have teamed up to bring your favorite Christian artists right to your phone. Sign up today and get 10 complementary ringtones!
Tab Country
Did you know CGR has a sister site w/ country guitar tabs? Well we do! Its called Tab Country. It has a great archive with a lot of country tabs.
Rockin Tabs
Are you looking for a site that has rock guitar tabs? Then Rockintabs.com is the place for you. It is a budding site with many rock guitar tabs. Submit your tab today.
Tab Gallery
Tab Gallery has a compilation of christian, rock, and country tabs all in one place. Come visit us.