Guitar Tabs
song title    band name

Join Us Today!

Don't strum alone...
be a part of the largest online Christian music community. Browse thousands of guitar tabs and chat w/ musicians like yourself.


It's Free!

This tab has not yet been rated for accuracy.Sorry, but you must be logged in to rate this tab.
Click here to log-in, or you can click here to register.
(Registration is free)

All songs owned by corresponding publishing company. If you make copies of any song on this website, be sure to report your usage to CCLI.
Submitted by: faithfromjesus

working man hands
by jonah33

well i kinda made a mistake for the name and nobody has put a correction
for it.so this is just the sliding part and solo for this song. (the name
of the mess up was called faith like that)here goes........

legend:
bend - b
slide - / 

intro/verse                  next part on verse
e-----------------           ---------17-17-   
b-3/4--0-----------          ---15-15-------
g---------------    x2       --------------   x 14
d----------------            --------------
a--------------              --------------
e--------------              --------------

pre-chorus
b-9/12------

chorus (all on the b string)
b-17/12--9/7--17/12--12-9b--17/12--9-7~--5~

distortion part after verse (all palm muted)
e----------------------
b----------------------
g------------9---------    x6
d----------------------
a-7-10-9-10----10-9-10-
e----------------------

intro/verse

chorus

solo                                                                            
e---------------------17-16---------------------------------------
b---------------------------17----19-17---------------------------
g-16----16-----14--------------16------------16-------------------
d----18----14-----14-------------------------14-16--14/16-18-16/14
a-----------------------------------------------------------------
e---------------------------------------9/12----------------------

(solo continued)
e------------------
b------------------
g------------------
d-16-16b-16--14/9--
a------------------
e------------------

chorus

then end with
e-----7-
b-4/5---   x4

thats it hope you like. :)

please rate.

Comments about this tab

No comments/corrections found. Add your own

Complimentary Christian Ringtones
Dadamobile and CGR have teamed up to bring your favorite Christian artists right to your phone. Sign up today and get 10 complementary ringtones!
Tab Country
Did you know CGR has a sister site w/ country guitar tabs? Well we do! Its called Tab Country. It has a great archive with a lot of country tabs.
Rockin Tabs
Are you looking for a site that has rock guitar tabs? Then Rockintabs.com is the place for you. It is a budding site with many rock guitar tabs. Submit your tab today.
Tab Gallery
Tab Gallery has a compilation of christian, rock, and country tabs all in one place. Come visit us.