Guitar Tabs
song title    band name

Join Us Today!

Don't strum alone...
be a part of the largest online Christian music community. Browse thousands of guitar tabs and chat w/ musicians like yourself.


It's Free!

This tab has been rated a 4.60 out of 5 for accuracy. (5 votes)Sorry, but you must be logged in to rate this tab.
Click here to log-in, or you can click here to register.
(Registration is free)

All songs owned by corresponding publishing company. If you make copies of any song on this website, be sure to report your usage to CCLI.
Submitted by: Cheese_Monkey

Song: Stars
Artist: Switchfoot
CD: Nothing is sound
Tabbed by: Tim Lahn, Cheese_Monkey

Well, the long awaited switchfoot CD is here, and now we all wanna know how to
play it! so here we go!

Intro part 1:

e---------------------------------------------------------------|
B---------------------------------------------------------------|
G--------6/7-----11----9-----13/16-14-----6/7----11-----9-999---|  (2x)
D--0-0-0-----0-0---0-0---0-0----------0-0-----0-0---0-0---------|
A--0-0-0-4/5-0-0-9-0-0-7-0-0-11/14-12-0-0-4/5-0-0-9-0-0-7-777---|
D--0-0-0-----0-0---0-0---0-0----------0-0-----0-0---0-0---------|

Intro part 2:

e---------------------------------
B---------------------------------
G--------6-7-----11------9-----6-7
D--0-2-0-x-x-0-7-x-0-4-5-x-0-2-x-x
A--0-2-0-4-5-0-7-9-0-4-5-7-0-2-4-5
D--0-2-0-----0-7---0-4-5---0-2----

e------------------------------
B------------------------------
G--------6-7-----11------9-999-
D--0-2-0-x-x-0-7-x-0-4-5-x-xxx
A--0-2-0-4-5-0-7-9-0-4-5-7-777
D--0-2-0-----0-7---0-4-5-------

Verse:

e---------------
B---------------
G-7---7------7-6
D-7-5-7-10-5-7-7  x2
A-5-5-5-10-5-5-4
D---5---10-5----

Pre Chorus:

e-------------------|
B-------------------|
G--7----------------|
D--7---7---9---10---|
A--5---7---9---10---|
D------7---9---10---|

Chorus guitar 1:

e----------
B----------
G-7-------- (intro riff part 2)
D-7-5-10-5-
A-5-5-10-5-
D-0-5-10-5-

Chorus guitar 2:

e-------------------------------------------------|
B-------------------------------------------------|
G--11-11-11-9-77--11-11-11-9-77--11-11-11-9-7-----|
D----------------0--------------5-------------7---| (silence while riff plays)
A--9--9--9--7-55-0-9--9--9-7-55-5-9--9--9-7-5-7---|
D----------------0--------------5-------------7---|

Bridge:

e-----------------------------------------|
B-----------------------------------------|
G-----------------------------------------|
D--5---7---4---5---------5---7---9---10---|
A--5---7---4---5---------5---7---9---10---|
D--5---7---4---5---------5---7---9---10---|


well i think that's all the pieces, you can most likely put it all together
yourself, i dont think i really need to babysit you there (just kidding). so 
yeah, if you haven't bought the CD already, go out and do it, it's totally 
worth the cash!  thanks for reading my tab, leave me a comment and rate the tab
please!

God Bless,

Tim

Comments about this tab

theguitarman388 - 2006-05-24

Sweet tab man, sweet tab


bigntalboy13 - 2006-06-02

DUDE I LOVE THIS SONG
and this tab is prety good


amliu - 2006-12-05

Nice Juicebox, but if you can still edit it, add the guitar 2 during the verse and the guitar 2 during the outro.
But its (as Jono would say) oosome!


Cheese_Monkey - 2007-01-11

broski i dont know the outro part, if you have it, submit it!


c_07 - 2007-04-27

Very accurate -- thank you!


Tenth Ave rocks - 2009-01-07

cool. uaaa it sonds right to me. good job


Add a comment/correction

Complimentary Christian Ringtones
Dadamobile and CGR have teamed up to bring your favorite Christian artists right to your phone. Sign up today and get 10 complementary ringtones!
Tab Country
Did you know CGR has a sister site w/ country guitar tabs? Well we do! Its called Tab Country. It has a great archive with a lot of country tabs.
Rockin Tabs
Are you looking for a site that has rock guitar tabs? Then Rockintabs.com is the place for you. It is a budding site with many rock guitar tabs. Submit your tab today.
Tab Gallery
Tab Gallery has a compilation of christian, rock, and country tabs all in one place. Come visit us.