Guitar Tabs
song title    band name

Join Us Today!

Don't strum alone...
be a part of the largest online Christian music community. Browse thousands of guitar tabs and chat w/ musicians like yourself.


It's Free!

This tab has been rated a 5.00 out of 5 for accuracy. (2 votes)Sorry, but you must be logged in to rate this tab.
Click here to log-in, or you can click here to register.
(Registration is free)

All songs owned by corresponding publishing company. If you make copies of any song on this website, be sure to report your usage to CCLI.
Submitted by: dobrijdjen

I Need Words
David Crowder Band
Can You hear Us?
© Worship Together, Six-Step, INOT
Submitted by Benjamin J. Slabaugh

EAEEBE Tuning
Key: E

Intro:

Part A                               repeat 2x
E[:------------------------------0---:
B[:-------0-------0----------0-------:
E[:-----0-------0----------0---0---0-:
E[:---5-------7---------/9-----------:
A[:-4-------6----------0-------------:
E[:----------------------------------:

Part B
[------------------------------0-]
[-------0-------0-----------0----]
[-----0-------0---------------0--]
[---5-------7---------0h2-2------]
[-4-------6---------2------------]
[-----------------0--------------]

Part A of Intro is played over the verse (“I need words” through “That I’ve
yet to find”)

E[:-------------------------------------]
B[:--------------------Part A again-----]
E[:-------0h2---------------------------]
E[:-----0----------0-0------------------]
A[:---2--------0h2----------------------]
E[:-4-----------------------------------]

Start this on “(I need) YOU”  Then start Part A again on the second “I need
YOU”

The “To be here now” part is Part A again

End with Part A then Part B.  This is a really easy song to play but it is
perfect for simple meditation.  Like if I’m trying to concentrate but I feel
distracted, or if I feel like I can’t say what I need to say, this is a great
prayer.  If you have any questions or comments please chime in at any time.
Enjoy!

Dobrij Djen and God Bless!
Benjamin J. Slabaugh

Comments about this tab

praise_habit - 2006-07-31

Good tab, but one thing: the last part of part A is missing one note:

|-------------0-|
|---------0-----|
|-----------0---|
|---/9--/7------|
|-0-------------|
|---------------|

That one note...it's a twicky one to hear. Vewwy quiet...


Add a comment/correction

Complimentary Christian Ringtones
Dadamobile and CGR have teamed up to bring your favorite Christian artists right to your phone. Sign up today and get 10 complementary ringtones!
Tab Country
Did you know CGR has a sister site w/ country guitar tabs? Well we do! Its called Tab Country. It has a great archive with a lot of country tabs.
Rockin Tabs
Are you looking for a site that has rock guitar tabs? Then Rockintabs.com is the place for you. It is a budding site with many rock guitar tabs. Submit your tab today.
Tab Gallery
Tab Gallery has a compilation of christian, rock, and country tabs all in one place. Come visit us.