Guitar Tabs
song title    band name

Join Us Today!

Don't strum alone...
be a part of the largest online Christian music community. Browse thousands of guitar tabs and chat w/ musicians like yourself.


It's Free!

This tab has not yet been rated for accuracy.Sorry, but you must be logged in to rate this tab.
Click here to log-in, or you can click here to register.
(Registration is free)

All songs owned by corresponding publishing company. If you make copies of any song on this website, be sure to report your usage to CCLI.
Submitted by: Ibanez_online

Hi all,This is my first tab so please rate.




Intro:
e----------------------------
B----------------------------
G----------------------------
D----------------------------   X2
A-----7-9----------7-9-------
E--0-0-----77h9-0-0------77h9
Verse:
e----------------------------
B----------------------------
G----------------------------
D----------------------------   X17
A-----7-9----------7-9-------
E--0-0-----77h9-0-0-----77h9-
Pre chorus:
guitar 1.the first guitar goes a little after the 2 guitar starts.
e-----------------
B-----------------
G-----------------
D-----------------
A--------3--3-2-2-
E-0-2-3-0---------
guitar 2
e----------------------------------
B----------------------------------
G------------------------5--54--4--
D-2-222222222222222222---3--32--2--
A-2-2222222222222222225-5----------
E-0-0000000000000000003-3----------
    PM.......................
Chorus:im not sure about the rythim so i just kida guessed.
e-----------------------------------
B-----------------------------------
G-----------------------------------
D---------2-22-2222-----------------
A-7-7-777-2-22-2222-4-4-4446-66-6666
E-5-5-555-0-00-0000-2-2-2224-44-4444

e-------------------------------------------
B-------------------------------------------
G-------------------------------------------
D-6-6-666-----------------4-44-4444---------
A-4-4-4446-66-6666-7-7-7772-22-2222---------
E--------4-44-4444-5-5-555------------------

e---------------------------------------------------
B---------------------------------------------------
G---------------------------------------------------
D-2-2-222---------6-6-666----------------4-44-4444--
A-2-2-2227-77-77774-4-4446-66-66667-7-7772-22-2222--
E-0-0-0005-55-5555-------4-44-44445-5-555-----------
    PM...
Verse 2:for veres two play same thig as verse 1
except they put in a little fill.So im not sure if this is excatly right.

e-------------------------
B----2-----2--------------
G-1--2--1--2--------------
D-2-----2-----------------  X8
A-------------------------
E-------------------------

Chorus:
then you play the intro agin then go back to the chorus,
and at the end of the chorus play those last to chords 
over three times then you play the intro again and then
you fade out.
         if you want to E-mail me then send to 
                   Glabe_online@msn.com
                                      oh, and please rate this tab, Thank you

Comments about this tab

FIFPhreak - 2006-09-23

The beginning is actually more like this

A--------7-9---5--
E-----0-0---7-7---

i looked at yours and kinda played with it a little


Add a comment/correction

Complimentary Christian Ringtones
Dadamobile and CGR have teamed up to bring your favorite Christian artists right to your phone. Sign up today and get 10 complementary ringtones!
Tab Country
Did you know CGR has a sister site w/ country guitar tabs? Well we do! Its called Tab Country. It has a great archive with a lot of country tabs.
Rockin Tabs
Are you looking for a site that has rock guitar tabs? Then Rockintabs.com is the place for you. It is a budding site with many rock guitar tabs. Submit your tab today.
Tab Gallery
Tab Gallery has a compilation of christian, rock, and country tabs all in one place. Come visit us.