Guitar Tabs
song title    band name

Join Us Today!

Don't strum alone...
be a part of the largest online Christian music community. Browse thousands of guitar tabs and chat w/ musicians like yourself.


It's Free!

This tab has been rated a 5.00 out of 5 for accuracy. (4 votes)Sorry, but you must be logged in to rate this tab.
Click here to log-in, or you can click here to register.
(Registration is free)

All songs owned by corresponding publishing company. If you make copies of any song on this website, be sure to report your usage to CCLI.
Submitted by: Cheese_Monkey

Song: Silence
Album: Silence
Band: Blindside
Written by: Blindside
Tabbed By: Tim Lahn (Cheese_Monkey)

Hey guys, i read the other tab for this song, which was good, but it wasn't 
quite perfect, so i had to go back and figure it out for myself.  a lot of it
was right, but there are a few important parts left out or done wrong. so 
without further ado, Silence, take two.

intro/verse:
eb---------------------------------
Bb----------1---------------1------
Gb----------x---------------x------
Db--5---7---2---5---5---7---2---5--
Ab--7---7---3---5---7---7---3---5--
Eb--0---0-----------0---0----------


Bb---------1-----------------1---------------1---------------1-------------
Gb---------x-----------------x---------------x---------------x-------------
Db-5---7---2---5---5---7-----2---5---5---7---2---5---5---7---2---5---5---7-
Ab-7---7---3---5---7---7-----3---5---7---7---3---5---7---7---3---5---7---7-
Eb-0---0-----------0---0-------------0---0-----------0---0-----------0---0-  
                                                                       
eb-----------------------------------------------------
Bb-1-------------1-------------1---------------1-------
Gb-x-------------x-------------x---------------x-------
Db-2--5---5--7---2--5---5--7---2--5---5--7-----2--5--5-
Ab-3--5---7--7---3--5---7--7---3--5---7--7-----3--5--5-
Eb--------0--0----------0--0----------0--0-------------

the chords there are just a little more complex than the other version

Chorus #1:

eb--------------------------------------------------0--------------------------
Bb------0-------0---------------------------------3-----3----3--------0---0--0-
Gb----------------------0-----0-----0-----0-----0--------0----0------2---2--2-2
Db---2----2---2---2---2-----2-----2-----2-----2-----------2----2----2---2--2---
Ab-0--------0-------------------------2-----3---------------------0------------
Eb------------------0-----2-----3----------------------------------------------

eb----------------------------------------------0----------------
Bb-----3-------3-------3----3----3-----3----3---3--3-------0-----
Gb----0-0-----0-0--------------------------0----0---0-----2---2--
Db---2---2---2---2---2----2----2-----2---2------2----2---2---2---
Ab--3-------3----------------------2----3-------3-------0---0----
Eb-----------------0----2----3-----------------------------------
                                                            
2nd Verse:

same as verse 1, but then:

eb--------------------------------------------------------
Bb----------------------------------1---------------------
Gb----------------------------------x---------------------
Db--5---7---10--9-------------------2---5---5-------5-5-5-
Ab----------------------------------3---5---5-------5-5-5-
Eb-----------------0---------5----------------------------

Chorus
eb--0-0-0-0---0-0-0-0---0-0-0-0-0-0---0-0-0-0--
Bb--0-0-0-0---0-0-3-0---3-3-3-3-3-3---0-0-0-0--
Gb--2-2-2-2---0-0-0-0---0-0-0-0-0-0---2-2-2-2--
Db--2-2-2-2---2-2-0-2---2-2-2-2-2-2---2-2-2-2--
Ab--0-0-0-0---2-2-2-2---3-3-3-3-3-3---0-0-0-0--
Eb--0-0-0-0---0-2-3-0---0-0-0-0-0-0---0-0-0-0--
                                                                              
eb--0-0-0-0---0-0-0-0---0-0-0-0-0-0---0-0-0-0--
Bb--0-0-0-0---0-0-3-0---3-3-3-3-3-3---0-0-0-0--
Gb--2-2-2-2---0-0-0-0---0-0-0-0-0-0---2-2-2-2--
Db--2-2-2-2---2-2-0-2---2-2-2-2-2-2---2-2-2-2--
Ab--0-0-0-0---2-2-2-2---3-3-3-3-3-3---0-0-0-0--
Eb--0-0-0-0---0-2-3-0---0-0-0-0-0-0---0-0-0-0--
                                                                              
eb--0-0-0-0---0-0-0-0---0-0-0-0---0-0-0-0---0-0-0-0---
Bb--3-3-3-3---0-0-0-0---3-3-3-3---0-0-0-0---3-3-3-3---
Gb--0-0-0-0---2-2-2-2---0-0-0-0---2-2-2-2---0-0-0-0---
Db--2-2-2-2---2-2-2-2---2-2-2-2---2-2-2-2---2-2-2-2---
Ab--3-3-3-3---0-0-0-0---3-3-3-3---0-0-0-0---3-3-3-3---
Eb--0-0-0-0---0-0-0-0---0-0-0-0---0-0-0-0---0-0-0-0---                                                                              

Repeat                            

 
eb-------------------------------------
Bb----------1---------------1----------
Gb----------x---------------x----------
Db--5---7---2---5---5---7---2---5------
Ab--7---7---3---5---7---7---3---5------
Eb--0---0-----------0---0--------------
                                                                        
eb-----------------------------------
Bb-----------------------------------
Gb-----------------------------------
Db---5---7---10--9-------------------
Ab----------------------7------------
Eb----------------------0(let ring)--


that about sums it up,  hopefully that's a lot more accurate, and helpful to
you.  if you have any questions email me at timistheman99@hotmail.com   leave
a comment if you like, and please rate the song however much you feel it 
deserves!  keep on rocking for christ!

Tim (Cheese_Monkey)

Comments about this tab

akaukal - 2006-04-03

awesome job man 5.00!!!


Dani_Boy - 2006-05-09

This tab is awesome!!! Only thing I could complain about is that you should have spaced it out at some parts. In your tab it sometimes looked like two small things were supposed to be played immedietly after eachother when there actually was a slight pause. But hey, why complain? This tab is so good, keep up the class!

One thing I found that you did wrong though. You put this chord in the first chorus:

eb|-----------|
Bb|----3---3--|
Gb|---0----0--|
Db|-2------2--|
Ab|3-------3--|
Eb|-----------|

The real chord should be:
eb|--------2--|
Bb|----3---3--|
Gb|---0----0--|
Db|-2------2--|
Ab|3----------|
Eb|-----------|

Just move your index finger from the 3rd fret of the Ab string to the 2nd fret of the eb string. If you listen closely you can hear the difference in the song.

Awesome job! It's a 5!


Dani_Boy - 2006-05-09

Sorry, I mean you put this chord:
eb|--------0--|
Bb|----3---3--|
Gb|---0----0--|
Db|-2------2--|
Ab|3-------3--|
Eb|-----------|


Add a comment/correction

Complimentary Christian Ringtones
Dadamobile and CGR have teamed up to bring your favorite Christian artists right to your phone. Sign up today and get 10 complementary ringtones!
Tab Country
Did you know CGR has a sister site w/ country guitar tabs? Well we do! Its called Tab Country. It has a great archive with a lot of country tabs.
Rockin Tabs
Are you looking for a site that has rock guitar tabs? Then Rockintabs.com is the place for you. It is a budding site with many rock guitar tabs. Submit your tab today.
Tab Gallery
Tab Gallery has a compilation of christian, rock, and country tabs all in one place. Come visit us.