Guitar Tabs
song title    band name

Join Us Today!

Don't strum alone...
be a part of the largest online Christian music community. Browse thousands of guitar tabs and chat w/ musicians like yourself.


It's Free!

This tab has been rated a 5.00 out of 5 for accuracy. (3 votes)Sorry, but you must be logged in to rate this tab.
Click here to log-in, or you can click here to register.
(Registration is free)

All songs owned by corresponding publishing company. If you make copies of any song on this website, be sure to report your usage to CCLI.
Submitted by: Tyler Rountree

Title:	Lion-O
Artist:	Relient K
Album:	The Anatomy of Tongue in Cheek

Hey, this tab is pretty close to 100% but maybe not quite there. Please,
rate, comment, and correct! Enjoy!


Tuning: Standard (EADGBe)

x= Palm Mute	/= Slide	h= Hammer On

Intro: (0:00)

  Guitar 1-
	e|-------------------------------------|
	B|-------------------------------------|
	G|--------9-9-------9-9-------9-9------|
	D|---9-9--9-9-------9-9-------9-9------|
	A|---7-7-------7-7-------6-6-------9---|
	E|-------------5-5-------4-4-------7---|

  Guitar 1-
	e|------------------------------------------|
	B|------------------------------------------|
	G|--------9-9-------9-9-------9-9-----------|
	D|---9-9--9-9-------9-9-------9-9-----------|
	A|---7-7-------7-7-------6-6-------x9x-x9x--|
	E|-------------5-5-------4-4-------x7x-x7x--|
  Guitar 2-
	e|------------------------------------|
	B|------------------------------------|
	G|--------13-13-----13-13-----13-13---|
	D|------------------------------------|
	A|--------11-11-----11-11-----11-11---|
	E|------------------------------------|

Verse: (0:07)

  Both Guitars- 	
	e|-----------------------------------|
	B|-----------------------------------|
	G|---13--13--13--13--13--13--11-11---|  Play 4
	D|-----------------------------------|	Times
	A|---11--11--11--11--11--11--9--9----|
	E|-----------------------------------|

Pre-Chorus: (0:22)

	Repeat intro 2X

Chorus: (0:37)

  Both Guitars
	e|---------------------|
	B|---------------------|
	G|---9-9-----6-6-------|  Play 4
	D|---9-9-7-7-6-6-9-9---|  Times
	A|---7-7-7-7-4-4-9-9---|
	E|-------5-5-----7-7---|

Post-Chorus: (0:51)

	Repeat Pre Chorus

Bridge: (1:06)

  Guitar 1-
	e|-----------------------------------------|
	B|-----------------------------------------|
	G|-----------------------------------------|
	D|---9---x9x-x9x-x9x-x9x-x9x-x9x-x9x-x9x---|
	A|---9---x9x-x9x-x9x-x9x-x9x-x9x-x9x-x9x---|
	E|---7---x7x-x7x-x7x-x7x-x7x-x7x-x7x-x7x---|
  Guitar 2-
	e|----------------------------------------------|
	B|----------------------------------------------|
	G|-----------------------8-9--9/10--9-8--8h9~---|
	D|----------------------------------------------|
	A|----------------------------------------------|
	E|----------------------------------------------|

  Guitar 1-
	     C#  A   E   B
	e|-------------------|
	B|-------------------|
	G|---6-------9---8---|  Guitar 1 strums and picks
	D|---6---7---9---9---|  through these chords
	A|---4---7---7---9---|
	E|-------5-------7---|
  Guitar 2- (1:39)
	e|----------------------------------------------|
	B|---9-10-9\7-5--9-12~~----9-10-9\7-5--9-12~~---|
	G|----------------------------------------------|
	D|----------------------------------------------|
	A|----------------------------------------------|
	E|----------------------------------------------|

Pre-Chorus: (1:54)


Chorus: (2:09)


Post-Chorus: (2:24)

  Both Guitars
	e|-------------------------------------|
	B|-------------------------------------|
	G|--------9-9-------9-9-------9-9------|
	D|---9-9--9-9-------9-9-------9-9------|
	A|---7-7-------7-7-------6-6-------9---|
	E|-------------5-5-------4-4-------7---|

	e|------------------------------------------|
	B|------------------------------------------|
	G|--------9-9-------9-9-------9-9-----------|
	D|---9-9--9-9-------9-9-------9-9-----------|
	A|---7-7-------7-7-------6-6-------x9x-x9x--|
	E|-------------5-5-------4-4-------x7x-x7x--|

Chorus: (2:39)


Ending: (2:53)

  Guitar 1-
	e|---------------------|
	B|---------------------|
	G|---------------------|
	D|---x2x-x2x-x2x-2~~---|
	A|---x2x-x2x-x2x-2~~---|
	E|---x0x-x0x-x0x-0~~---|

Comments about this tab

RelientA-OK - 2006-03-18

I think this is pretty good. Keep it up dude, Peace!


+SEAL+ - 2006-08-24

Nice tab! Just one little part you missed: the acoustic picking in the bridge. It goes like this:

G----6-----6------9--9p8--8--
D---6-----6------9--9----9--
A-4-----0-------7-------7---

And then the picking speeds up, but the same chords.


Add a comment/correction

Complimentary Christian Ringtones
Dadamobile and CGR have teamed up to bring your favorite Christian artists right to your phone. Sign up today and get 10 complementary ringtones!
Tab Country
Did you know CGR has a sister site w/ country guitar tabs? Well we do! Its called Tab Country. It has a great archive with a lot of country tabs.
Rockin Tabs
Are you looking for a site that has rock guitar tabs? Then Rockintabs.com is the place for you. It is a budding site with many rock guitar tabs. Submit your tab today.
Tab Gallery
Tab Gallery has a compilation of christian, rock, and country tabs all in one place. Come visit us.