Guitar Tabs
song title    band name

Join Us Today!

Don't strum alone...
be a part of the largest online Christian music community. Browse thousands of guitar tabs and chat w/ musicians like yourself.


It's Free!

This tab has been rated a 3.00 out of 5 for accuracy. (1 vote)Sorry, but you must be logged in to rate this tab.
Click here to log-in, or you can click here to register.
(Registration is free)

All songs owned by corresponding publishing company. If you make copies of any song on this website, be sure to report your usage to CCLI.
Submitted by: christonhigh

Song: The Art of Breaking
Artist: Thousand Foot Krutch
Album: The Art of Breaking


Ok guys here we go guys i redid that one guys upside down tab for ya so let me
how it works. I changed some of the times u play some stuff but let me know if 
its ok

Tuning: drop D (most of there songs r in this)

Intro:
e--------------------------
B--------------------------
G-66-66-66-------66-66-66--
D-66-66-66-66666-66-66-66--
A-44-44-44-------44-44-44--
D--------------------------
  ** ** **       ** ** **

Verse:

e-----------------------------------------
B-----------------------------------------
G-66-66-66--------------------------------
D-66-66-66--44-44-44--66-66-66-2-0-2-2-0-2
A-44-44-44--44-44-44--66-66-66-2-0-2-2-0-2
D-----------44-44-44--66-66-66-2-0-2-2-0-2
  ** ** **  ** ** **  ** ** **


Chrous:

e-----------------------------
B-----------------------------
G------------- --6------------
D-6-(4x)-4-(4x)--6-(3x)-2-0-2-
A-6------4-------4------2-0-2-   Idk if u play that many times but ya
D-6------4--------------2-0-2

(Verse)

(Chorus)

Bridge:
e-----------------  U might repeat this but im not sure
B-----------------
G---6----8b--6----
D--6--------6-6---
A-4--------4------
D-----------------

* Palm Mute

Comments about this tab

Dani_Boy - 2006-03-25

It's a bit off and the real song is in Drop B. (They use Drop D in
every song in Phenomenon and Art of Breaking, except for "Move"
and "Art of Breaking") I'm not saying your tab is bad, it just
needs some fixing, that's all.


Add a comment/correction

Complimentary Christian Ringtones
Dadamobile and CGR have teamed up to bring your favorite Christian artists right to your phone. Sign up today and get 10 complementary ringtones!
Tab Country
Did you know CGR has a sister site w/ country guitar tabs? Well we do! Its called Tab Country. It has a great archive with a lot of country tabs.
Rockin Tabs
Are you looking for a site that has rock guitar tabs? Then Rockintabs.com is the place for you. It is a budding site with many rock guitar tabs. Submit your tab today.
Tab Gallery
Tab Gallery has a compilation of christian, rock, and country tabs all in one place. Come visit us.