Guitar Tabs
song title    band name

Join Us Today!

Don't strum alone...
be a part of the largest online Christian music community. Browse thousands of guitar tabs and chat w/ musicians like yourself.


It's Free!

This tab has been rated a 4.33 out of 5 for accuracy. (3 votes)Sorry, but you must be logged in to rate this tab.
Click here to log-in, or you can click here to register.
(Registration is free)

All songs owned by corresponding publishing company. If you make copies of any song on this website, be sure to report your usage to CCLI.
Submitted by: sXcountry

Song: Phoenix With A Heartache
Artist: Kids In The Way
Album: Safe From The Losing Fight
Flicker Records

I read the other two that were on here (they're both in the same tab,
one is a comment), and i don't think they are very accurate, so here's mine.

It's a sweet song...


Intro (G1)
e|-----------------------------------------|
B|-----------------------------------------|
G|-----------------------------------------|
D|-6-------4-------8-------6-------4-------|
A|-6-(12X)-4-(12X)-8-(12X)-6-(9X)--4-(3X)--|
D|-6-------4-------8-------6-------4-------|

Intro (G2)
e|-----------------------------------------------------------------------|
B|--------(11's)-(10's)-------------(11's)-(10's)-----(11's)---(10's)----|
G|-666666-111111-101010------666666-111111-101010-111111111111-101010-888|
D|-xxxxxx--x-x-x--x-x-x-(2X)-xxxxxx--x-x-x--x-x-x--x-x-x-x-x-x--x-x-x-xxx|
A|-444444--9-9-9--8-8-8------444444--9-9-9--8-8-8--9-9-9-9-9-9--8-8-8-666|
D|-----------------------------------------------------------------------|

Verse (G1)(P.M.)
e|-------------------------------------|
B|-------------------------------------|
G|-------------------------------------|
D|-888-888-888-888-866-666-666-666-688-| (4X) On 4th time, release palm mute
A|-888-888-888-888-866-666-666-666-688-| on the G# power chord and play G#
D|-888-888-888-888-866-666-666-666-688-| instead of the last 2 A# chords.

Verse (G2) comes in on 2nd time above
e|------------------------------------------|
B|------------------------------------------|
G|----12---12---12---12---11---11---11---11-|
D|-----x----x----x----x----x----x----x----x-| (3X)
A|----10---10---10---10----9----9----9----9-|
D|------------------------------------------|

Chorus (G1)
e|---------Part-1-------------------------|Part-2|
B|----------------------------------------|------|
G|----------------------------------------|------|
D|-6-------4-------8-------6-------4------|--6~--|
A|-6-(12X)-4-(12X)-8-(12X)-6-(9X)--4-(3X)-|--6~--|
D|-6-------4-------8-------6-------4------|--6~--|

Chorus (G2) 
e|----Part-1---------------|----Part-2-------------|
B|-------------------------|-----------------------|
G|-111111111111-101010-888-|--666666-111111-101010-|
D|--x-x-x-x-x-x--x-x-x-xxx-|--xxxxxx--x-x-x--x-x-x-|
A|--9-9-9-9-9-9--8-8-8-666-|--444444--9-9-9--8-8-8-|
D|-------------------------|-----------------------|

Both Guitars Play: Part 1, Part 2, Part 1 in Chorus

Verse 2 (Same as 1st Verse for both Guitars)

Chorus 2 (G1)
e|---------Part-1-------------------------|Part-2|
B|----------------------------------------|------|
G|----------------------------------------|------|
D|-6-------4-------8-------6-------4------|--6~--|
A|-6-(12X)-4-(12X)-8-(12X)-6-(9X)--4-(3X)-|--6~--|
D|-6-------4-------8-------6-------4------|--6~--|

Chorus 2 (G2) 
e|----Part-1---------------|----Part-2-------------|
B|-------------------------|-----------------------|
G|-111111111111-101010-888-|--666666-111111-101010-|
D|--x-x-x-x-x-x--x-x-x-xxx-|--xxxxxx--x-x-x--x-x-x-|
A|--9-9-9-9-9-9--8-8-8-666-|--444444--9-9-9--8-8-8-|
D|-------------------------|-----------------------|

Bridge Part 1 (G1)
e|-----------------|
B|-----------------|
G|-----------------|
D|-888-888-666-666-| (2X)
A|-888-888-666-666-|
D|-888-888-666-666-|

Bridge Part 1 (G2)
e|------------------|
B|----11---11h12p11-|
G|------------------|
D|------------------| (4X)
A|------------------|
D|------------------|

Bridge Part 2 (G1)
e|---------------------------------------------|
B|---------------------------------------------|
G|---------------------------------------------|
D|-8-------6-------4-------0000-2222-4444-6666-| (2X)
A|-8-(16X)-6-(16X)-4-(16X)-0000-2222-4444-6666-|
D|-8-------6-------4-------0000-2222-4444-6666-|

Bridge Part 2 (G2) comes in on G1ís second time
e|------------------------------------------------------|
B|------------------------------------------------------|
G|-11-------8-------6-------6666-8888-10101010-11111111-|
D|--x-(16X)-x-(16X)-x-(16X)-xxxx-xxxx--x-x-x-x--x-x-x-x-|
A|--9-------6-------4-------4444-6666--8-8-8-8--9-9-9-9-|
D|------------------------------------------------------|

Chorus (the same)

Outro (G1) plays verse chords.

Comments about this tab

HolyBlood8 - 2005-10-07

the chorus is like this


-------------------------------------------------
-------------------------------------------------
-------------------------------------------------
-11-----4-----8-----4----8----6----11--4--8--4---
-11x12--4x12--8x12--4x4--8x4--6x4--11--4--8--4x16
-11-----4-----8-----4----8----6----11--4--8--4---
pm...


Add a comment/correction

Complimentary Christian Ringtones
Dadamobile and CGR have teamed up to bring your favorite Christian artists right to your phone. Sign up today and get 10 complementary ringtones!
Tab Country
Did you know CGR has a sister site w/ country guitar tabs? Well we do! Its called Tab Country. It has a great archive with a lot of country tabs.
Rockin Tabs
Are you looking for a site that has rock guitar tabs? Then Rockintabs.com is the place for you. It is a budding site with many rock guitar tabs. Submit your tab today.
Tab Gallery
Tab Gallery has a compilation of christian, rock, and country tabs all in one place. Come visit us.