Guitar Tabs
song title    band name

Join Us Today!

Don't strum alone...
be a part of the largest online Christian music community. Browse thousands of guitar tabs and chat w/ musicians like yourself.


It's Free!

This tab has not yet been rated for accuracy.Sorry, but you must be logged in to rate this tab.
Click here to log-in, or you can click here to register.
(Registration is free)

All songs owned by corresponding publishing company. If you make copies of any song on this website, be sure to report your usage to CCLI.
Submitted by: newsgirl93

Together written py Phil Joel.
2000 InPop Records.

Intro:---------------------------------------------------
---------------------------------------------------------
---------------------------------------------------------
---4-6-4-------4-6-4---------7-9-7---7-6----6-7-9-6-7-9--
---------------------------7-------7---------------------
-0---------0H2---------2-5-------------------------------


That is one way to play it, for me personally I like to play it like this:

E  0-----------0-0-2---------------2--------------------------------------	
A------------------------------------ 0------------------------------------	
D ---4---4-----------4----4------------2---------2-----------------------
G-------1---------------1----------------- 2--4------1-----1-2-4-1-2-4-
B---------------------------------------------------------------------------
E---------------------------------------------------------------------------
 
I Like to play it like this because well I have really big hands, so it's
pretty easy to play, and it keeps the lower notes sustained, unlike in the other
one. But it's really up to you, and which one you think sounds better. 

Play that through the verse, or the chords are: E F#m (or just F#5) A.

CHORUS:  E A 

BRIDGE: C#M  A  E(BARRED) Eb5 ( don't ask me how, but it sounds good!!!!) 
C#m  A  E ( I'M PRETTY SURE ABOUT THAT)

Just to note at the end of the chorus where Phil is singing : " and I know we'll
always be strong, cuz together we belong" or something like that. it's: C#m  B. 
then you go back into the verse riff. 


Comments about this tab

No comments/corrections found. Add your own

Complimentary Christian Ringtones
Dadamobile and CGR have teamed up to bring your favorite Christian artists right to your phone. Sign up today and get 10 complementary ringtones!
Tab Country
Did you know CGR has a sister site w/ country guitar tabs? Well we do! Its called Tab Country. It has a great archive with a lot of country tabs.
Rockin Tabs
Are you looking for a site that has rock guitar tabs? Then Rockintabs.com is the place for you. It is a budding site with many rock guitar tabs. Submit your tab today.
Tab Gallery
Tab Gallery has a compilation of christian, rock, and country tabs all in one place. Come visit us.