Guitar Tabs
song title    band name

Join Us Today!

Don't strum alone...
be a part of the largest online Christian music community. Browse thousands of guitar tabs and chat w/ musicians like yourself.


It's Free!

This tab has been rated a 4.55 out of 5 for accuracy. (11 votes)Sorry, but you must be logged in to rate this tab.
Click here to log-in, or you can click here to register.
(Registration is free)

All songs owned by corresponding publishing company. If you make copies of any song on this website, be sure to report your usage to CCLI.
Submitted by: ilovejesus0307

-fm static-definately maybe
-What Are You Waiting For?
-standard tuning

|intro/1st verse|
e|----------------------------|-----------------------------|
B|----------------------------|--9-9--4-4--6-6--2-2---------|
G|--2----2----2----2----------|--9-9--4-4--6-6--2-2---------|
D|-1-1--1-1--1-1--2-2----X6---|--9-9--4-4--6-6--2-2----x2---|
A|-----0----------------------|--7-7--2-2--4-4--0-0---------|
E|0---------0----2------------|-----------------------------|



|1st chorus|
e|--------------------------------------------
B|--------------------------------------------|
G|------4-4--6-6-6-6-6-6-6-6--2-2-2-2-2-2-2-2-|
D|-2-2--4-4--6-6-6-6-6-6-6-6--2-2-2-2-2-2-2-2-|
A|-2-2--2-2--4-4-4-4-4-4-4-4--0-0-0-0-0-0-0-0-|
E|-0-0----------------------------------------|

e|-------------------------------------------------------------------------|
B|-------------------------------------------------------------------------|
G|-cont------------------4-4-4-4-4-4-4-4--6-6-6-6-6-6-6-6--2-2-2-2-2-2-2-2-|
D|------2-2-2-2-2-2-2-2--4-4-4-4-4-4-4-4--6-6-6-6-6-6-6-6--2-2-2-2-2-2-2-2-|
A|------2-2-2-2-2-2-2-2--2-2-2-2-2-2-2-2--4-4-4-4-4-4-4-4--0-0-0-0-0-0-0-0-|
E|------0-0-0-0-0-0-0-0----------------------------------------------------|



|2nd Verse|
e|-------------------------------------------------|
B|-------------------------------------------------|
G|------4-4-------2-2-------4-4-----------2-2-2-2--|
D|-2-2--4-4--2-2--2-2--2-2--4-4--4-4-4-4--2-2-2-2--|
A|-2-2--2-2--2-2--0-0--2-2--2-2--4-4-4-4--0-0-0-0--|
E|-0-0-------0-0-------0-0-------2-2-2-2-----------|

e|------------------------------------------------------|
B|------------------------------------------------------|
G|cont-------2-2-------4-4-------2-2-----------4-4-4-4--|
D|------2-2--2-2--2-2--4-4--2-2--2-2--4-4-4-4--4-4-4-4--|
A|------2-2--0-0--2-2--2-2--2-2--0-0--4-4-4-4--2-2-2-2--|
E|------0-0-------0-0-------0-0-------2-2-2-2-----------|



|2nd chorus|
e|--------------------------------------------------------------------------|
B|--------------------------------------------------------------------------|
G|------------------4-4-4-4-4-4-4-4--6-6-6-6-6-6-6-6--2-2-2-2-2-2-2-2-------|
D|-2-2-2-2-2-2-2-2--4-4-4-4-4-4-4-4--6-6-6-6-6-6-6-6--2-2-2-2-2-2-2-2---x2--|
A|-2-2-2-2-2-2-2-2--2-2-2-2-2-2-2-2--4-4-4-4-4-4-4-4--0-0-0-0-0-0-0-0-------|
E|-0-0-0-0-0-0-0-0----------------------------------------------------------|



|3rd verse|
|---------------------------------------------------------------------|
|---------------------------------------------------------------------|
|------------------2-2-2-2-2-2-2-2--6-6-6-6-6-6-6-6--4-4-4-4-4-4-4-4--|
|-2-2-2-2-2-2-2-2--2-2-2-2-2-2-2-2--6-6-6-6-6-6-6-6--4-4-4-4-4-4-4-4--|
|-2-2-2-2-2-2-2-2--0-0-0-0-0-0-0-0--4-4-4-4-4-4-4-4--2-2-2-2-2-2-2-2--|
|-0-0-0-0-0-0-0-0-----------------------------------------------------|
  . . . . . . . .  . . . . . . . .  . . . . . . . .  . . . . . . . .

|-----------------------------------------------------------------|
|---------9-----------------------------6-------------------------|
|---------9----2-2-2-2-2-2-2-2--6-6-6-6-6-------------------------|
|-2-2-2-2-9----2-2-2-2-2-2-2-2--6-6-6-6-6----4-4-4-4-4-4-4-4---x2-| 
|-2-2-2-2-7----0-0-0-0-0-0-0-0--4-4-4-4-4----2-2-2-2-2-2-2-2------|
|-0-0-0-0---------------------------------------------------------|
PM. . . .      . . . . . . . .  . . . .      . . . . . . . . 



|3rd Chorus|
e|--------------------------------------------------------------------------|
B|--------------------------------------------------------------------------|
G|------------------4-4-4-4-4-4-4-4--6-6-6-6-6-6-6-6--2-2-2-2-2-2-2-2-------|
D|-2-2-2-2-2-2-2-2--4-4-4-4-4-4-4-4--6-6-6-6-6-6-6-6--2-2-2-2-2-2-2-2---x2--|
A|-2-2-2-2-2-2-2-2--2-2-2-2-2-2-2-2--4-4-4-4-4-4-4-4--0-0-0-0-0-0-0-0-------|
E|-0-0-0-0-0-0-0-0----------------------------------------------------------|


*this is my first tab so dont be harsh.  it sounds right to me.
rate it, if its good or bad so people know.*

Comments about this tab

Timberwolf - 2005-09-07

Nice Tab!


jesus=homeboy - 2005-09-14

nice tab. im just learning to play and this sounds good. i like fm static a lot.


anberlinlover.. - 2005-09-17

nice.


deanodubb - 2005-11-05

Hi ^_^ this is a really cool tab, and is correct as far as i can see. Really good for a first tab, way better than i could ever do !!!!! Rock ON!!!!!


ilovejesus0307 - 2006-01-04

thanks. i spent lots of time on this tab. i really like this song and its a good beginner song. one of the first songs i learned (that i was proud off). lol.


GodRocksmysocks - 2006-02-20

great tab i actually understood it better than some of the other ones... i'm kinda teachin myself how to play but anyways again great tab


jjonjjon - 2006-03-15

nice job but..the intro goes E----------------------------------
B----------------------------------
G-----1-------1--------1-------1---
D---2---2---2---2----2---2---2---2-
A---------0----------------0-------
E-0----------------0--------------- play through 6 times


SkyGuitarist08 - 2006-04-13

No, he has the intro right. Try listening to the song turned up loud and play softly with it. The second 0 on the A string doesn't sound correct.

God Bless.
In Christ,
-Doug


akaukal - 2006-04-21

Yeah, Skyguitarist is right. It's fine the way it is. GOOD JOB MAN!!!!


BballerGl - 2006-12-22

Does anyone have the bridge for this song.....if so plz E-mail it to alexsearles@hotmail.com~Thanks, Great tab man!!


StellarFreak - 2008-06-19

hey awesome tab! btw could someone plz tab "Tonight" soon..im begging yu


Add a comment/correction

Complimentary Christian Ringtones
Dadamobile and CGR have teamed up to bring your favorite Christian artists right to your phone. Sign up today and get 10 complementary ringtones!
Tab Country
Did you know CGR has a sister site w/ country guitar tabs? Well we do! Its called Tab Country. It has a great archive with a lot of country tabs.
Rockin Tabs
Are you looking for a site that has rock guitar tabs? Then Rockintabs.com is the place for you. It is a budding site with many rock guitar tabs. Submit your tab today.
Tab Gallery
Tab Gallery has a compilation of christian, rock, and country tabs all in one place. Come visit us.