Guitar Tabs
song title    band name

Join Us Today!

Don't strum alone...
be a part of the largest online Christian music community. Browse thousands of guitar tabs and chat w/ musicians like yourself.


It's Free!

This tab has been rated a 1.00 out of 5 for accuracy. (1 vote)Sorry, but you must be logged in to rate this tab.
Click here to log-in, or you can click here to register.
(Registration is free)

All songs owned by corresponding publishing company. If you make copies of any song on this website, be sure to report your usage to CCLI.
Submitted by: soldmynameoneba

Song Name: Send The Pain Below
Band: Chevelle a.k.a greatest band in the universe
Tuning: Drop D (D,A,D,G,B,E) in short, just tune ur low E one half step down

Intro- Heavy Distortion
-------------------------------------------------------------------------
-------------------------------------------------------------------------
-------------------------11----------------------------------------------
---7----------9----------x----------5------------------------------------
---5----------9----------9----------5------------------------------------
--------------9---------------------5------------------------------------

Verse- Distortion off
-----------------------------------------------
-----------------------------------------------
---11------------------11----------------------  For this part, the squeel u
---x-------------------x-----------------------  here is feedback. Just get
---9-------------------9-----------------------  really close to ur amp.
-----------------------------------------------
count 12 or 13 beats in between these two chords

Verse Cont'd- Distortion off
-----------------------------------------------
-----------------------------------------------
---11----------9-------------------------------  Keep strumming these two
---x-----------x-------------------------------  chords back and forth until
---9-----------7-------------------------------  "But Long before...."
-----------------------------------------------

Verse Cont'd- Distortion still off
Okay I'm not gonna tab this part cause its the same as the intro except
the distortion is off

Chorus- HEAVY DISTORTION (finally)
This is the same thing as the intro also and the distortion is on!!!!





Bridge- very weird type of distortion followed by heavy distortion
--------------------------------------------
--------------------------------------------
--------------------------------------------
---00--222--000---555555--------------------
---00--222--000---555555--------------------
---00--222--000---555555--------------------
play this around 12 times

now this part sounds cool if u can do it right
--------------------------------------------
--------------------------------------------
--------------------------------------------
---2---------5------------------------------
---2---------5------------------------------
---2---------5------------------------------
strum the first chord really fast and then slowly slide to the second

then go directly to the chorus and ur done!!!!

simple.

Comments about this tab

No comments/corrections found. Add your own

Complimentary Christian Ringtones
Dadamobile and CGR have teamed up to bring your favorite Christian artists right to your phone. Sign up today and get 10 complementary ringtones!
Tab Country
Did you know CGR has a sister site w/ country guitar tabs? Well we do! Its called Tab Country. It has a great archive with a lot of country tabs.
Rockin Tabs
Are you looking for a site that has rock guitar tabs? Then Rockintabs.com is the place for you. It is a budding site with many rock guitar tabs. Submit your tab today.
Tab Gallery
Tab Gallery has a compilation of christian, rock, and country tabs all in one place. Come visit us.