Guitar Tabs
song title    band name

Join Us Today!

Don't strum alone...
be a part of the largest online Christian music community. Browse thousands of guitar tabs and chat w/ musicians like yourself.


It's Free!

This tab has not yet been rated for accuracy.Sorry, but you must be logged in to rate this tab.
Click here to log-in, or you can click here to register.
(Registration is free)

All songs owned by corresponding publishing company. If you make copies of any song on this website, be sure to report your usage to CCLI.
Submitted by: LIVE4HIMALONE

CAPO 3:

INTRO:
E----2-----2----2-----2----2------2----2---2----2---2------2----2----2----2-----
B-----3-----3----3-----3----3------3----3---3----3---3------3----3----3----3----
G---3-----3----3-----3----3---3--0---0----0---0---0----0------------------------
D--------------------------------------------------------0----0----0----0----0--
A-------------------------------------------------------------------------------
E-------------------------------------------------------------------------------

E--2------2----2---2----2---2-----2----------------------------------------------
B---3------3----3---3----3---3----3---------------------------------------------
G-------0----0---0----0---0---0---2---------------------------------------------
D-----0---------------------------0---------------------------------------------
A-------------------------------------------------------------------------------
E-------------------------------------------------------------------------------

REPEAT INTRO AGAIN AND THROUGHOUT VERSE:

VERSE 1:
D (INTRO)
YOU ARE THE .........................
D (INTRO)
YOU ARE THE .........................
D (INTRO)
THE MERCY YOU'VE ....................
     Bm           A           G        Eb
SO I LAY ..............................YEAH......

CHORUS:
 D               A
HERE MY ...........................
      Bm                  G
WITH HONOR ........................
  D              A
I LAY IT ..........................
      Bm                  G
WITH LIFTED .......................
 D (LIKE INTRO)
TO YOU WE...........................

VERSE 2:
D (INTRO)
YOU ARE THE ..........................
D (INTRO)
YOU ARE THE ..........................
D (INTRO)
THE GRACE YOU'VE .....................
   Bm             A               G      Eb
SO THIS ...............................YEAH.....

(BACK TO CHORUS AND HOLD THE G CHORD)

BRIDGE:
C5       Bm                    D
AND TO YOU ...........................
C5       Bm                    D
AND TO YOU ...........................
C5       Bm                    A        A7
AND TO YOU ...........................

(GO BACK TO THE CHORUS USING THE SAME CHORD PROGRESSION AND PLAY IT TWICE.  EXCEPT AFTER THE SECOND TIME THROUGH THE CHORUS, PLAY A D CHORD AFTER THE G CHORD.

NOW HERE ON THE ENDING IS WHERE I'M NOT TOO SURE.  I PLAY THIS AND END WITH A GADD9 (320033).

E------------------------------------
B------------------------------------
G------0-----0------0----------------
D----0-----0------0-------0----------
A--5-----4------2-------0------------
E---------------------5------3--2----

I TOTALLY WELCOME ANY HELP WITH THE ENDING OR ANY WHERE ELSE ON THIS SONG.

GOD BLESS!!


Comments about this tab

FrankDA - 2010-11-13

Should actually be a Capo 5 not 3.


Add a comment/correction

Complimentary Christian Ringtones
Dadamobile and CGR have teamed up to bring your favorite Christian artists right to your phone. Sign up today and get 10 complementary ringtones!
Tab Country
Did you know CGR has a sister site w/ country guitar tabs? Well we do! Its called Tab Country. It has a great archive with a lot of country tabs.
Rockin Tabs
Are you looking for a site that has rock guitar tabs? Then Rockintabs.com is the place for you. It is a budding site with many rock guitar tabs. Submit your tab today.
Tab Gallery
Tab Gallery has a compilation of christian, rock, and country tabs all in one place. Come visit us.