Guitar Tabs
song title    band name

Join Us Today!

Don't strum alone...
be a part of the largest online Christian music community. Browse thousands of guitar tabs and chat w/ musicians like yourself.


It's Free!

This tab has been rated a 4.67 out of 5 for accuracy. (3 votes)Sorry, but you must be logged in to rate this tab.
Click here to log-in, or you can click here to register.
(Registration is free)

All songs owned by corresponding publishing company. If you make copies of any song on this website, be sure to report your usage to CCLI.
Submitted by: coolbeans5627


                          AMERICAN LOVE - HASTE THE DAY
                                BURNING BRIDGES
	            Solid State Records, all rights reserved
  
  Tabbed out by Jeff Hayden

  Guitar 1 - Drop C Tuning - CGCFAd
  Guitar 2 - Drop C Tuning - CGCFAd 


(Intro)
|-----------------------------------------------------------------------|
|-----------------------------------------------------------------------|
|-----------------------------------------------------------------------|
|----------------3-2-2/3----------------3-2-2/3----------------3-2-2/3--|
|--00-3h5---3h5--5-4-4/5--00-3h5---3h5--5-4-4/5--00-3h5---3h5--5-4-4/5--|
|--00-----0---------------00-----0---------------00-----0---------------|
|  ..     .               ..     .               ..     .
|
|-----------------------------------------------------------------------|
|-----------------------------------------------------------------------|
|-----------------------------------------------------------------------|
|-----------------------------------------------------------------------|
|-----------------------------------------------------------------------|
|-----------------------------------------------------------------------|

|-------------------------|
|-------------------------|
|-------------------------|
|----------------3-2-2/3--|
|--00-3h5---3h5--5-4-4/5--|
|--00-----0---------------|
|  ..     .               
|
|-------------------------|
|-------------------------|
|-------------------------|
|----------------PS\\\----|
|----------------PS\\\----|
|----------------PS\\\----|

(Verse)
|-----------------------------------------------------------------------|
|-----------------------------------------------------------------------|
|-----------------------------------------------------------------------|
|----------------3-2-2/3----------------3-2-2/3----------------3-2-2/3--|
|--00-3h5---3h5--5-4-4/5--00-3h5---3h5--5-4-4/5--00-3h5---3h5--5-4-4/5--|
|--00-----0---------------00-----0---------------00-----0---------------|
|  ..     .               ..     .               ..     .
|
|-----------------------------------------------------------------------|
|-----------------------------------------------------------------------|
|-----------------------------------------------------------------------|
|----------------3-2-2/3----------------3-2-2/3----------------3-2-2/3--|
|--00-3h5---3h5--5-4-4/5--00-3h5---3h5--5-4-4/5--00-3h5---3h5--5-4-4/5--|
|--00-----0---------------00-----0---------------00-----0---------------|
   ..     .               ..     .               ..     .

|-----------------------------------------------------------------------|
|-----------------------------------------------------------------------|
|-----------------------------------------------------------------------|
|----------------3-2-2/3----------------3-2-2/3----------------3-2-2/3--|
|--00-3h5---3h5--5-4-4/5--00-3h5---3h5--5-4-4/5--00-3h5---3h5--5-4-4/5--|
|--00-----0---------------00-----0---------------00-----0---------------|
|  ..     .               ..     .               ..     .
|
|-----------------------------------------------------------------------|
|-----------------------------------------------------------------------|
|-----------------------------------------------------------------------|
|----------------3-2-2/3----------------3-2-2/3----------------3-2-2/3--|
|--00-3h5---3h5--5-4-4/5--00-3h5---3h5--5-4-4/5--00-3h5---3h5--5-4-4/5--|
|--00-----0---------------00-----0---------------00-----0---------------|
   ..     .               ..     .               ..     .

|------------------------------------------------|
|------------------------------------------------|
|------------------------------------------------|
|----------------3-2-2/3----------------3-2-2/3--|
|--00-3h5---3h5--5-4-4/5--00-3h5---3h5--5-4-4/5--|
|--00-----0---------------00-----0---------------|
|  ..     .               ..     .               
|
|------------------------------------------------|
|------------------------------------------------|
|------------------------------------------------|
|----------------3-2-2/3----------------3-2-2/3--|
|--00-3h5---3h5--5-4-4/5--00-3h5---3h5--5-4-4/5--|
|--00-----0---------------00-----0---------------|
   ..     .               ..     .               

(Riff 1)
|------------------------------------------------------|
|------------------------------------------------------|
|----------7\5---5\4---4/5-----------7\5---5\4---4/10--|
|--0000-0--x-x---x-x---x-x---0000-0--x-x---x-x---x--x--|
|--0000-0--5\3---3\2---2/3---0000-0--5\3---3\2---2/-8--|
|--0000-0------0-----0-------0000-0------0-----0-------|
|  .... .      .     .       .... .      .     .    
|
|------------------------------------------------------|
|------------------------------------------------------|
|------------------------------------------------------|
|--0000-0--------------------0000-0--------------------|
|--0000-0--------------------0000-0--------------------|
|--0000-0--------------------0000-0--------------------|
   .... .                    .... .

|---------------------------------------------------------------|
|---------------------------------------------------------------|
|-----------7\5-----5\4-----4/5------------7\5-----5\4----4/10--|
|--0000-0---x-x-----x-x-----x-x---0000-0---x-x-----x-x----x--x--|
|--0000-0---5\3-----3\2-----2/3---0000-0---5\3-----3\2----2/-8--|
|--0000-0--------0-------0--------0000-0--------0-------0-------|
|  .... .        .       .        .... .        .       .    
|
|---------------------------------------------------------------|
|----------15\13---13\12---12/13----------15\13---13\12--12/18--|
|-----------x-------x--x----x--x-----------x--x----x--x---x-----|
|--0000-0--12\10---10\-9----9/10--0000-0--12\10---10\-9---9/15--|
|--0000-0-------------------------0000-0------------------------|
|--0000-0--------0-------0--------0000-0--------0-------0-------|
   .... .        .       .        .... .        .       .

|---------------------------------------------------------------|
|---------------------------------------------------------------|
|-----------7\5-----5\4-----4/5------------7\5-----5\4----4/10--|
|--0000-0---x-x-----x-x-----x-x---0000-0---x-x-----x-x----x--x--|
|--0000-0---5\3-----3\2-----2/3---0000-0---5\3-----3\2----2/-8--|
|--0000-0--------0-------0--------0000-0--------0-------0-------|
|  .... .        .       .        .... .        .       .    
|
|---------------------------------------------------------------|
|----------15\13---13\12---12/13----------15\13---13\12--12/18--|
|-----------x-------x--x----x--x-----------x--x----x--x---x-----|
|--0000-0--12\10---10\-9----9/10--0000-0--12\10---10\-9---9/15--|
|--0000-0-------------------------0000-0------------------------|
|--0000-0--------0-------0--------0000-0--------0-------0-------|
   .... .        .       .        .... .        .       .

|---------------------------------------------------------------|
|---------------------------------------------------------------|
|-----------7\5-----5\4-----4/5------------7\5-----5\4----4/10--|
|--0000-0---x-x-----x-x-----x-x---0000-0---x-x-----x-x----x--x--|
|--0000-0---5\3-----3\2-----2/3---0000-0---5\3-----3\2----2/-8--|
|--0000-0--------0-------0--------0000-0--------0-------0-------|
|  .... .        .       .        .... .        .       .    
|
|---------------------------------------------------------------|
|----------15\13---13\12---12/13----------15\13---13\12--12/18--|
|-----------x-------x--x----x--x-----------x--x----x--x---x-----|
|--0000-0--12\10---10\-9----9/10--0000-0--12\10---10\-9---9/15--|
|--0000-0-------------------------0000-0------------------------|
|--0000-0--------0-------0--------0000-0--------0-------0-------|
   .... .        .       .        .... .        .       .

|---------------------------------------------------------------|
|---------------------------------------------------------------|
|-----------7\5-----5\4-----4/5------------7\5-----5\4----4/10--|
|--0000-0---x-x-----x-x-----x-x---0000-0---x-x-----x-x----x--x--|
|--0000-0---5\3-----3\2-----2/3---0000-0---5\3-----3\2----2/-8--|
|--0000-0--------0-------0--------0000-0--------0-------0-------|
|  .... .        .       .        .... .        .       .    
|
|---------------------------------------------------------------|
|----------15\13---13\12---12/13----------15\13---13\12--12/18--|
|-----------x-------x--x----x--x-----------x--x----x--x---x-----|
|--0000-0--12\10---10\-9----9/10--0000-0--12\10---10\-9---9/15--|
|--0000-0-------------------------0000-0------------------------|
|--0000-0--------0-------0--------0000-0--------0-------0-------|
   .... .        .       .        .... .        .       .

|---------------------------------------------------------------|
|---------------------------------------------------------------|
|-----------7\5-----5\4-----4/5------------7\5-----5\4----4/10--|
|--0000-0---x-x-----x-x-----x-x---0000-0---x-x-----x-x----x--x--|
|--0000-0---5\3-----3\2-----2/3---0000-0---5\3-----3\2----2/-8--|
|--0000-0--------0-------0--------0000-0--------0-------0-------|
|  .... .        .       .        .... .        .       .    
|
|---------------------------------------------------------------|
|----------15\13---13\12---12/13----------15\13---13\12--12/18--|
|-----------x-------x--x----x--x-----------x--x----x--x---x-----|
|--0000-0--12\10---10\-9----9/10--0000-0--12\10---10\-9---9/15--|
|--0000-0-------------------------0000-0------------------------|
|--0000-0--------0-------0--------0000-0--------0-------0-------|
   .... .        .       .        .... .        .       .

(Riff 2)
|------------------------------------------------------------|
|------------------------------------------------------------|
|------12-10---9-10-9-9-10\9-------12-10--9-10--14-14-15\14--|
|--00---x--x---x--x-x-x--x-x---00---x--x--x--x---x--x--x-----|
|--00--10--9---7--8-7-7--8\7---00--10--9--7--8--12-12-13\12--|
|--00--------------------------00----------------------------|
|  ..                          ..
|
|------------------------------------------------------------|
|------------------------------------------------------------|
|------12-10---9-10-9-9-10\9-------12-10--9-10--14-14-15\14--|
|--00---x--x---x--x-x-x--x-x---00---x--x--x--x---x--x--x-----|
|--00--10--9---7--8-7-7--8\7---00--10--9--7--8--12-12-13\12--|
|--00--------------------------00----------------------------|
   ..                          ..

|---------------------------------------------------------|
|---------------------------------------------------------|
|------12-10---9-10-9-9-10\9-------12-10--14-15-17-19-21--|
|--00---x--x---x--x-x-x--x-x---00---x--x---x--x--x--x--x--|
|--00--10--9---7--8-7-7--8\7---00--10--9--12-13-15-17-19--|
|--00--------------------------00-------------------------|
|  ..                          ..
|
|---------------------------------------------------------|
|---------------------------------------------------------|
|------12-10---9-10-9-9-10\9-------12-10--14-15-17-19-21--|
|--00---x--x---x--x-x-x--x-x---00---x--x---x--x--x--x--x--|
|--00--10--9---7--8-7-7--8\7---00--10--9--12-13-15-17-19--|
|--00--------------------------00-------------------------|
   ..                          ..

|------------------------------------------------------------|
|------------------------------------------------------------|
|------12-10---9-10-9-9-10\9-------12-10--9-10--14-14-15\14--|
|--00---x--x---x--x-x-x--x-x---00---x--x--x--x---x--x--x-----|
|--00--10--9---7--8-7-7--8\7---00--10--9--7--8--12-12-13\12--|
|--00--------------------------00----------------------------|
|  ..                          ..
|
|------------------------------------------------------------|
|------------------------------------------------------------|
|------12-10---9-10-9-9-10\9-------12-10--9-10--14-14-15\14--|
|--00---x--x---x--x-x-x--x-x---00---x--x--x--x---x--x--x-----|
|--00--10--9---7--8-7-7--8\7---00--10--9--7--8--12-12-13\12--|
|--00--------------------------00----------------------------|
   ..                          ..

|---------------------------------------------------------|
|---------------------------------------------------------|
|------12-10---9-10-9-9-10\9-------12-10--14-15-17-19-21--|
|--00---x--x---x--x-x-x--x-x---00---x--x---x--x--x--x--x--|
|--00--10--9---7--8-7-7--8\7---00--10--9--12-13-15-17-19--|
|--00--------------------------00-------------------------|
|  ..                          ..
|
|---------------------------------------------------------|
|---------------------------------------------------------|
|------12-10---9-10-9-9-10\9-------12-10--14-15-17-19-21--|
|--00---x--x---x--x-x-x--x-x---00---x--x---x--x--x--x--x--|
|--00--10--9---7--8-7-7--8\7---00--10--9--12-13-15-17-19--|
|--00--------------------------00-------------------------|
   ..                          ..

(Riff 3)
|----------------------------------------------------------------------------|
|----------------------------------------------------------------------------|
|----------------------------------------------------------------------------|
|--000000000--3~~~----000000000--3~~~----000000000--3~~~---000000000--3--000-|
|--000000000--3~~~----000000000--3~~~----000000000--3~~~---000000000--3--000-|
|--000000000--3~~~----000000000--3~~~----000000000--3~~~---000000000--3--000-|
|  .........          .........          .........         .........     ...
|
|----------------------------------------------------------------------------|
|----------------------------------------------------------------------------|
|----------------------------------------------------------------------------|
|--000000000--3~~~----000000000--3~~~---000000000--3~~~---000000000--3--000--|
|--000000000--3~~~----000000000--3~~~---000000000--3~~~---000000000--3--000--|
|--000000000--3~~~----000000000--3~~~---000000000--3~~~---000000000--3--000--|
   .........          .........         .........         .........     ...

|----------------------------------------------------------------|
|----------------------------------------------------------------|
|----------------------------------------------------------------|
|--000000000--3-0-0-000-0--3-0-5--000000000--3-0-0-000-0--3-0-5--|
|--000000000--3-0-0-000-0--3-0-5--000000000--3-0-0-000-0--3-0-5--|
|--000000000--3-0-0-000-0--3-0-5--000000000--3-0-0-000-0--3-0-5--|
|  .........    .   ... .    .    .........    .   ... .    .
|
|----------------------------------------------------------------|
|----------------------------------------------------------------|
|----------------------------------------------------------------|
|--000000000--3-------------------000000000--3-------------------|
|--000000000--3-------------------000000000--3-------------------|
|--000000000--3-------------------000000000--3-------------------|
   .........                      .........

|---------------------------------------------------|
|---------------------------------------------------|
|---------------------------------------------------|
|--000000000--3-0-0-000-0--3-0-5--000000000--3-0-0--|
|--000000000--3-0-0-000-0--3-0-5--000000000--3-0-0--|
|--000000000--3-0-0-000-0--3-0-5--000000000--3-0-0--|
|  .........    .   ... .    .    .........    .   
|
|---------------------------------------------------|
|---------------------------------------------------|
|---------------------------------------------------|
|--000000000-<3>------------------000000000--3-0-0--|
|--000000000----------------------000000000--3-0-0--|
|--000000000----------------------000000000--3-0-0--|
   .........                      .........    .

|----------------------------------------------------------------|
|----------------------------------------------------------------|
|----------------------------------------------------------------|
|--000000000--3-0-0-000-0--3-0-5--000000000--3-0-0-000-0--3-0-5--|
|--000000000--3-0-0-000-0--3-0-5--000000000--3-0-0-000-0--3-0-5--|
|--000000000--3-0-0-000-0--3-0-5--000000000--3-0-0-000-0--3-0-5--|
|  .........    .   ... .    .    .........    .   ... .    .
|
|----------------------------------------------------------------|
|----------------------------------------------------------------|
|----------------------------------------------------------------|
|--000000000--3-0-0-000-0--3-0-5--000000000--3-0-0-000-0--3-0-5--|
|--000000000--3-0-0-000-0--3-0-5--000000000--3-0-0-000-0--3-0-5--|
|--000000000--3-0-0-000-0--3-0-5--000000000--3-0-0-000-0--3-0-5--|
   .........    .   ... .    .    .........    .   ... .    .

|------------------------------------------------------|
|------------------------------------------------------|
|------------------------------------------------------|
|--000000000--3-0-0-000-0--3-0-5--000000000--3-0-1~~~--|
|--000000000--3-0-0-000-0--3-0-5--000000000--3-0-1~~~--|
|--000000000--3-0-0-000-0--3-0-5--000000000--3-0-1~~~--|
|  .........    .   ... .    .    .........    .   
|
|------------------------------------------------------|
|------------------------------------------------------|
|------------------------------------------------------|
|--000000000--3-0-0-000-0--3-0-5--000000000--3-0-1~~~--|
|--000000000--3-0-0-000-0--3-0-5--000000000--3-0-1~~~--|
|--000000000--3-0-0-000-0--3-0-5--000000000--3-0-1~~~--|
   .........    .   ... .    .    .........    . 

|-----------------------------------------------------------------|
|-----------------------------------------------------------------|
|-----------------------------------------------------------------|
|--000000000--3-0-0-000-0--3-0--5--000000000--3-0-0-000-0--3-0-5--|
|--000000000--3-0-0-000-0--3-0--5--000000000--3-0-0-000-0--3-0-5--|
|--000000000--3-0-0-000-0--3-0--5--000000000--3-0-0-000-0--3-0-5--|
|  .........    .   ... .    .     .........    .   ... .    .
|
|-----------------------------------------------------------------|
|-----------------------------------------------------------------|
|-----------------------------------------------------------------|
|--000000000--3-0-0-000-0--3-0-<5>-000000000--3-0-0-000-0--3-0-5--|
|--000000000--3-0-0-000-0--3-0-----000000000--3-0-0-000-0--3-0-5--|
|--000000000--3-0-0-000-0--3-0-----000000000--3-0-0-000-0--3-0-5--|
   .........    .   ... .    .     .........    .   ... .    .

|----------------------------------------------------------------|
|----------------------------------------------------------------|
|----------------------------------------------------------------|
|--000000000--3-0-0-000-0--3-0-5--000000000--3-0-0-000-0--3-0-5--|
|--000000000--3-0-0-000-0--3-0-5--000000000--3-0-0-000-0--3-0-5--|
|--000000000--3-0-0-000-0--3-0-5--000000000--3-0-0-000-0--3-0-5--|
|  .........    .   ... .    .    .........    .   ... .    .
|
|----------------------------------------------------------------|
|----------------------------------------------------------------|
|----------------------------------------------------------------|
|--000000000--3-0-0-000-0--3-0-5--000000000--3-0-0-000-0--3-0-5--|
|--000000000--3-0-0-000-0--3-0-5--000000000--3-0-0-000-0--3-0-5--|
|--000000000--3-0-0-000-0--3-0-5--000000000--3-0-0-000-0--3-0-5--|
   .........    .   ... .    .    .........    .   ... .    .

(“Quiet Part”)
|-------------------------------------------------------------------|
|-------------------------------------------------------------------|
|----------7--------------7-----------------7--------------7--------|
|------0-----0---0------0---0---0-------5-----5---5------5---5---5--|
|----0---0-----0------0-------0-------5---5-----5------5-------5----|
|--0----------------0---------------5----------------5--------------|
|
|-------------------------------------------------------------------|
|-------------------------------------------------------------------|
|-------------------------------------------------------------------|
|-------------------------------------------------------------------|
|-------------------------------------------------------------------|
|-------------------------------------------------------------------|

|-------------------------------------------------------------------|
|-------------------------------------------------------------------|
|----------7--------------7-----------------7--------------7--------|
|------4-----4---4------4---4---4-------5-----5---5------5---5---5--|
|----4---4-----4------4-------4-------5---5-----5------5-------5----|
|--4----------------4---------------5----------------5--------------|
|
|-------------------------------------------------------------------|
|-------------------------------------------------------------------|
|-------------------------------------------------------------------|
|-------------------------------------------------------------------|
|-------------------------------------------------------------------|
|-------------------------------------------------------------------|

|-------------------------------------------------------------------|
|-------------------------------------------------------------------|
|----------7--------------7-----------------7--------------7--------|
|------0-----0---0------0---0---0-------5-----5---5------5---5---5--|
|----0---0-----0------0-------0-------5---5-----5------5-------5----|
|--0----------------0---------------5----------------5--------------|
|
|-------------------------------------------------------------------|
|-------------------------------------------------------------------|
|-------------------------------------------------------------------|
|-------------------------------------------------------------------|
|-------------------------------------------------------------------|
|-------------------------------------------------------------------|

|-------------------------------------------------------------------|
|-------------------------------------------------------------------|
|----------7--------------7-----------------7--------------7--------|
|------4-----4---4------4---4---4-------5-----5---5------5---5---5--|
|----4---4-----4------4-------4-------5---5-----5------5-------5----|
|--4----------------4---------------5----------------5--------------|
|
|-------------------------------------------------------------------|
|-------------------------------------------------------------------|
|-------------------------------------------------------------------|
|-------------------------------------------------------------------|
|-------------------------------------------------------------------|
|-------------------------------------------------------------------|

|-------------------------------------------------------------------|
|-------------------------------------------------------------------|
|----------7--------------7-----------------7--------------7--------|
|------0-----0---0------0---0---0-------5-----5---5------5---5---5--|
|----0---0-----0------0-------0-------5---5-----5------5-------5----|
|--0----------------0---------------5----------------5--------------|
|
|-------------------------------------------------------------------|
|-------------------------------------------------------------------|
|-------------------------------------------------------------------|
|-------------------------------------------------------------------|
|-------------------------------------------------------------------|
|-------------------------------------------------------------------|

|-------------------------------------------------------------------|
|-------------------------------------------------------------------|
|----------7--------------7-----------------7--------------7--------|
|------4-----4---4------4---4---4-------5-----5---5------5---5---5--|
|----4---4-----4------4-------4-------5---5-----5------5-------5----|
|--4----------------4---------------5----------------5--------------|
|
|-------------------------------------------------------------------|
|-------------------------------------------------------------------|
|-------------------------------------------------------------------|
|-------------------------------------------------------------------|
|-------------------------------------------------------------------|
|-------------------------------------------------------------------|

|-------------------------------------------------------------------|
|-------------------------------------------------------------------|
|----------7--------------7-----------------7--------------7--------|
|------0-----0---0------0---0---0-------5-----5---5------5---5---5--|
|----0---0-----0------0-------0-------5---5-----5------5-------5----|
|--0----------------0---------------5----------------5--------------|
|
|-------------------------------------------------------------------|
|-------------------------------------------------------------------|
|-------------------------------------------------------------------|
|-------------------------------------------------------------------|
|-------------------------------------------------------------------|
|-------------------------------------------------------------------|

|-------------------------------------------------------------------|
|-------------------------------------------------------------------|
|----------7--------------7-----------------7--------------7--------|
|------4-----4---4------4---4---4-------5-----5---5------5---5---5--|
|----4---4-----4------4-------4-------5---5-----5------5-------5----|
|--4----------------4---------------5----------------5--------------|
|
|-------------------------------------------------------------------|
|-------------------------------------------------------------------|
|-------------------------------------------------------------------|
|-------------------------------------------------------------------|
|-------------------------------------------------------------------|
|-------------------------------------------------------------------|

|-------------------------------------------------------------------|
|-------------------------------------------------------------------|
|----------7--------------7-----------------7--------------7--------|
|------0-----0---0------0---0---0-------5-----5---5------5---5---5--|
|----0---0-----0------0-------0-------5---5-----5------5-------5----|
|--0----------------0---------------5----------------5--------------|
|
|-------------------------------------------------------------------|
|-------------------------------------------------------------------|
|-------------------------------------------------------------------|
|-------------------------------------------------------------------|
|-------------------------------------------------------------------|
|-------------------------------------------------------------------|

|-------------------------------------------------------------------|
|-------------------------------------------------------------------|
|----------7--------------7-----------------7--------------7--------|
|------4-----4---4------4---4---4-------5-----5---5------5---5---5--|
|----4---4-----4------4-------4-------5---5-----5------5-------5----|
|--4----------------4---------------5----------------5--------------|
|
|-------------------------------------------------------------------|
|-------------------------------------------------------------------|
|-------------------------------------------------------------------|
|-------------------------------------------------------------------|
|-------------------------------------------------------------------|
|-------------------------------------------------------------------|

|-------------------------------------------------------------------|
|-------------------------------------------------------------------|
|----------7--------------7-----------------7--------------7--------|
|------0-----0---0------0---0---0-------5-----5---5------5---5---5--|
|----0---0-----0------0-------0-------5---5-----5------5-------5----|
|--0----------------0---------------5----------------5--------------|
|
|-------------------------------------------------------------------|
|-------------------------------------------------------------------|
|-------------------------------------------------------------------|
|-------------------------------------------------------------------|
|-------------------------------------------------------------------|
|-------------------------------------------------------------------|

|-------------------------------------------------------------------|
|-------------------------------------------------------------------|
|----------7--------------7-----------------7--------------7--------|
|------4-----4---4------4---4---4-------5-----5---5------5---5---5--|
|----4---4-----4------4-------4-------5---5-----5------5-------5----|
|--4----------------4---------------5----------------5--------------|
|
|-------------------------------------------------------------------|
|-------------------------------------------------------------------|
|-------------------------------------------------------------------|
|-------------------------------------------------------------------|
|-------------------------------------------------------------------|
|-------------------------------------------------------------------|

|-------------------------------------------------------------------|
|-------------------------------------------------------------------|
|----------7--------------7-----------------7--------------7--------|
|------0-----0---0------0---0---0-------5-----5---5------5---5---5--|
|----0---0-----0------0-------0-------5---5-----5------5-------5----|
|--0----------------0---------------5----------------5--------------|
|
|-------------------------------------------------------------------|
|-------------------------------------------------------------------|
|-------------------------------------------------------------------|
|-------------------------------------------------------------------|
|-------------------------------------------------------------------|
|-------------------------------------------------------------------|

|-------------------------------------------------------------------|
|-------------------------------------------------------------------|
|----------7--------------7-----------------7--------------7--------|
|------4-----4---4------4---4---4-------5-----5---5------5---5---5--|
|----4---4-----4------4-------4-------5---5-----5------5-------5----|
|--4----------------4---------------5----------------5--------------|
|
|-------------------------------------------------------------------|
|-------------------------------------------------------------------|
|-------------------------------------------------------------------|
|-------------------------------------------------------------------|
|-------------------------------------------------------------------|
|-------------------------------------------------------------------|

|-------------------------------------------------------------------|
|-------------------------------------------------------------------|
|----------7--------------7-----------------7--------------7--------|
|------0-----0---0------0---0---0-------5-----5---5------5---5---5--|
|----0---0-----0------0-------0-------5---5-----5------5-------5----|
|--0----------------0---------------5----------------5--------------|
|
|-------------------------------------------------------------------|
|-------------------------------------------------------------------|
|-------------------------------------------------------------------|
|-------------------------------------------------------------------|
|-------------------------------------------------------------------|
|-------------------------------------------------------------------|

|-------------------------------------------------------------------|
|-------------------------------------------------------------------|
|----------7--------------7-----------------7--------------7--------|
|------4-----4---4------4---4---4-------5-----5---5------5---5---5--|
|----4---4-----4------4-------4-------5---5-----5------5-------5----|
|--4----------------4---------------5----------------5--------------|
|
|-------------------------------------------------------------------|
|-------------------------------------------------------------------|
|-------------------------------------------------------------------|
|-------------------------------------------------------------------|
|-------------------------------------------------------------------|
|-------------------------------------------------------------------|

(Breakdown Riff)
|-----------------------------------------------------------------|
|-----------------------------------------------------------------|
|-----------------------------------------------------------------|
|--000-00-0--000000--000-00-0--000000--000-00-0--000000--000------|
|--000-00-0--000000--000-00-0--000000--000-00-0--000000--000------|
|--000-00-0--000000--000-00-0--000000--000-00-0--000000--000------|
|  ... .. .  ......  ... .. .  ......  ... .. .  ......  ... 
|
|-----------------------------------------------------------------|
|-----------------------------------------------------------------|
|-----------------------------------------------------------------|
|-----------------------------------------------------------------|
|--------------------------------------555555555555555555555------|
|------------------------------------------------------------<3>--|

|-------------------------------------------------------------------|
|-------------------------------------------------------------------|
|-------------------------------------------------------------------|
|--000-00-0--000000--000-00-0--000000--000-00-0--000000--000--3--5--|
|--000-00-0--000000--000-00-0--000000--000-00-0--000000--000--3--5--|
|--000-00-0--000000--000-00-0--000000--000-00-0--000000--000--3--5--|
|  ... .. .  ......  ... .. .  ......  ... .. .  ......  ... 
|
|-------------------------------------------------------------------|
|-------------------------------------------------------------------|
|-------------------------------------------------------------------|
|--000-00-0--000000--000-00-0--000000--000-00-0--000000--000--3--5--|
|--000-00-0--000000--000-00-0--000000--000-00-0--000000--000--3--5--|
|--000-00-0--000000--000-00-0--000000--000-00-0--000000--000--3--5--|
   ... .. .  ......  ... .. .  ......  ... .. .  ......  ... 

|-------------------------------------------------------------------|
|-------------------------------------------------------------------|
|-------------------------------------------------------------------|
|--000-00-0--000000--000-00-0--000000--000-00-0--000000--000--3--5--|
|--000-00-0--000000--000-00-0--000000--000-00-0--000000--000--3--5--|
|--000-00-0--000000--000-00-0--000000--000-00-0--000000--000--3--5--|
|  ... .. .  ......  ... .. .  ......  ... .. .  ......  ... 
|
|-------------------------------------------------------------------|
|-------------------------------------------------------------------|
|-------------------------------------------------------------------|
|--000-00-0--000000--000-00-0--000000--000-00-0--000000--000--3--5--|
|--000-00-0--000000--000-00-0--000000--000-00-0--000000--000--3--5--|
|--000-00-0--000000--000-00-0--000000--000-00-0--000000--000--3--5--|
   ... .. .  ......  ... .. .  ......  ... .. .  ......  ... 

|-------------------------------------------------------------------|
|-------------------------------------------------------------------|
|-------------------------------------------------------------------|
|--000-00-0--000000--000-00-0--000000--000-00-0--000000--000--3--5--|
|--000-00-0--000000--000-00-0--000000--000-00-0--000000--000--3--5--|
|--000-00-0--000000--000-00-0--000000--000-00-0--000000--000--3--5--|
|  ... .. .  ......  ... .. .  ......  ... .. .  ......  ... 
|
|-------------------------------------------------------------------|
|-------------------------------------------------------------------|
|-------------------------------------------------------------------|
|--000-00-0--000000--000-00-0--000000--000-00-0--000000--000--3--5--|
|--000-00-0--000000--000-00-0--000000--000-00-0--000000--000--3--5--|
|--000-00-0--000000--000-00-0--000000--000-00-0--000000--000--3--5--|
   ... .. .  ......  ... .. .  ......  ... .. .  ......  ... 

|-------------------------------------------------------------------|
|-------------------------------------------------------------------|
|-------------------------------------------------------------------|
|--000-00-0--000000--000-00-0--000000--000-00-0--000000--000--3--5--|
|--000-00-0--000000--000-00-0--000000--000-00-0--000000--000--3--5--|
|--000-00-0--000000--000-00-0--000000--000-00-0--000000--000--3--5--|
|  ... .. .  ......  ... .. .  ......  ... .. .  ......  ... 
|
|-------------------------------------------------------------------|
|-------------------------------------------------------------------|
|-------------------------------------------------------------------|
|--000-00-0--000000--000-00-0--000000--000-00-0--000000--000--3--5--|
|--000-00-0--000000--000-00-0--000000--000-00-0--000000--000--3--5--|
|--000-00-0--000000--000-00-0--000000--000-00-0--000000--000--3--5--|
   ... .. .  ......  ... .. .  ......  ... .. .  ......  ... 

|------------|-----------------------------------------------------------------|
|------------|-----------------------------------------------------------------|
|-----5------|-----------------------------------------------------------------|
|---3---3----|-000-00-0--000000--000-00-0--000000--000-00-0--000000--000--3-5--|
|-3-------3~-|-000-00-0--000000--000-00-0--000000--000-00-0--000000--000--3-5--|
|------------|-000-00-0--000000--000-00-0--000000--000-00-0--000000--000--3-5--|
|              ... .. .  ......  ... .. .  ......  ... .. .  ......  ... 
|
|------------|-----------------------------------------------------------------|
|------------|-----------------------------------------------------------------|
|------------|-----------------------------------------------------------------|
|------------|-000-00-0--000000--000-00-0--000000--000-00-0--000000--000--3-5--|
|------------|-000-00-0--000000--000-00-0--000000--000-00-0--000000--000--3-5--|
|------------|-000-00-0--000000--000-00-0--000000--000-00-0--000000--000--3-5--|
               ... .. .  ......  ... .. .  ......  ... .. .  ......  ... 

|----------------------------------------------------------------|-----------||
|----------------------------------------------------------------|-----------||
|----------------------------------------------------------------|-----7-----||
|-000-00-0--000000--000-00-0--000000--000-00-0--000000--000--3-5-|-----0-----||
|-000-00-0--000000--000-00-0--000000--000-00-0--000000--000--3-5-|-----0-----||
|-000-00-0--000000--000-00-0--000000--000-00-0--000000--000--3-5-|-----0-----||
| ... .. .  ......  ... .. .  ......  ... .. .  ......  ... 
|
|----------------------------------------------------------------|-----------||
|----------------------------------------------------------------|-----------||
|----------------------------------------------------------------|-----7-----||
|-000-00-0--000000--000-00-0--000000--000-00-0--000000--000--3-5-|-----0-----||
|-000-00-0--000000--000-00-0--000000--000-00-0--000000--000--3-5-|-----0-----||
|-000-00-0--000000--000-00-0--000000--000-00-0--000000--000--3-5-|-----0-----||
  ... .. .  ......  ... .. .  ......  ... .. .  ......  ... 

[Key]
<#> - pinch harmonic
PS - pick scrape
. - palm mute
~ - let ring out/vibrato
x - mute string
/ - slide up
\ - slide down
h - hammer on

Comments about this tab

schecter_dude - 2005-09-26

looks good. could sum 1 please please, and pretty please tab When everything falls. I luv that song.


sXcountry - 2005-11-27

awesome!


tfkguy - 2006-01-19

and "All I Have"


guitarboy4Jesus - 2006-04-18

looks pretty good i did find some mistakes just by lisening to it. iam going to try to tab it. and no afense dude, but there are shorter ways to tab it 13 pages on my printer.


Add a comment/correction

Complimentary Christian Ringtones
Dadamobile and CGR have teamed up to bring your favorite Christian artists right to your phone. Sign up today and get 10 complementary ringtones!
Tab Country
Did you know CGR has a sister site w/ country guitar tabs? Well we do! Its called Tab Country. It has a great archive with a lot of country tabs.
Rockin Tabs
Are you looking for a site that has rock guitar tabs? Then Rockintabs.com is the place for you. It is a budding site with many rock guitar tabs. Submit your tab today.
Tab Gallery
Tab Gallery has a compilation of christian, rock, and country tabs all in one place. Come visit us.