Guitar Tabs
song title    band name

Join Us Today!

Don't strum alone...
be a part of the largest online Christian music community. Browse thousands of guitar tabs and chat w/ musicians like yourself.


It's Free!

This tab has been rated a 4.50 out of 5 for accuracy. (2 votes)Sorry, but you must be logged in to rate this tab.
Click here to log-in, or you can click here to register.
(Registration is free)

All songs owned by corresponding publishing company. If you make copies of any song on this website, be sure to report your usage to CCLI.
Submitted by: FijiDJ

Band- 12 Stones
Album- Potter's Field
Song- SPEAK YOUR MIND
Tuning- Drop C

Intro
D---------------------------------------------------------------------------|
A---------------------------------------------------------------------------|
F----------------------------------10\9----------------------------------10-|
C-00-9h10-0-10h12-0-9h10-0-10h12-0-x--x-00-9h10-0-10h12-0-9h10-0-10h12-0-x--|
G-00-9h10-0-10h12-0-9h10-0-10h12-0-8-\7-00-9h10-0-10h12-0-9h10-0-10h12-0-8--|
C-00-9h10-0-10h12-0-9h10-0-10h12-0------00-9h10-0-10h12-0-9h10-0-10h12-0----|
  **      *       *      *       *      **      *       *      *       *

Intro(continued) When the drums come in                       After second time repeat
D--------------------------------------------                 D----|
A--------------------------------------------                 A----|
F---------------------------------------10\9-                 F-10-|
C-00-10-11-12-10-12-0-10-11-12-10-12-12-x--x-                 C-x--|
G-00-10-11-12-10-12-0-10-11-12-10-12-12-8-\7-                 G-8--|
C-00-10-11-12-10-12-0-10-11-12-10-12-12------                 c----|

Repeat the whole "Intro(continued)" 2 times

Verse   "How does it make you feel, when I look away..."
D-----------------------------------------------------------|
A---------------------------8-7---------------------------8-|
F----5-6-7-5-7--5-6-7-5-7-7--------5-6-7-5-7--5-6-7-5-7-7---|
C-00----------0-----------------00----------0---------------|
G-----------------------------------------------------------|
C-----------------------------------------------------------|
  ** * * * * ** * * * * * *     ** * * * * ** * * * * * *

Pre-chorus   "I try to find you, you hold your head up high..."
for the pre-chorus play the "Intro(continued)" riff once

Fill  "I let it all fall down, can you hear me?"
D---------------------------------------------------------------------------|
A---------------------------------------------------------------------------|
F----------------------------------10\9----------------------------------10-|
C-00-9h10-0-10h12-0-9h10-0-10h12-0-x--x-00-9h10-0-10h12-0-9h10-0-10h12-0-x--|
G-00-9h10-0-10h12-0-9h10-0-10h12-0-8-\7-00-9h10-0-10h12-0-9h10-0-10h12-0-8--|
C-00-9h10-0-10h12-0-9h10-0-10h12-0------00-9h10-0-10h12-0-9h10-0-10h12-0----|
  ** * ** * ** ** * * ** * ** ** *      **      *       *      *       *

Chorus(strum chords)
D-------------------------|
A-------------------------|
F-------------------------|
C-0----10----5----8----10-|
G-0----10----5----8----10-|
C-0----10----5----8----10-|

Leading out of chorus
D----------------------------------------------------------------------------|
A----------------------------------------------------------------------------|
F--------------------------------------10-\9---------------------------------|
C-00-10-11-12-10-12-0-10-11-12-10-12-12-x--x-00-10-11-12-10-12-0-10-11-12-10-|
G-00-10-11-12-10-12-0-10-11-12-10-12-12-8-\7-00-10-11-12-10-12-0-10-11-12-10-|
C-00-10-11-12-10-12-0-10-11-12-10-12-12------00-10-11-12-10-12-0-10-11-12-10-|

Then the verse
Then the pre-chorus
Then the fill before chorus
Then the chorus

For the solo, guitar 1 plays the chorus riffs

Solo(guitar 2)
D-----------------------------------------------------------------------------|
A-----------------------------------------------------------------------------|
F--------------------------------------------------------------------------19-|
C----10----10-12-12-12--15-15-15-14h15-14---14-15-17--17-15-15-17-15-17h19----|
G-12----12-------------------------------15-----------------------------------|
C-----------------------------------------------------------------------------|

-------------------------------------------------------17-17-17-17-17-15-13---|
------------------------------------------------------------------------------|
-19------------------------------17-17--19p17----17h19------------------------|
----17h19-19-17---15--15---17-19--------------19------------------------------|
---------------17---17--17----------------------------------------------------|
------------------------------------------------------------------------------|

----13-----------------------------------------------------------------------------|
-15---15-15-15-15-15-15-17-17-17-17-17-17--15-13--13-------------------------------|
------------------------------------------------14---17-15-17-15-17p15----------19-|
-----------------------------------------------------------------------17-17h19----|
-----------------------------------------------------------------------------------|
-----------------------------------------------------------------------------------|

------------------------------------------------------|
------------------------------------------------------|
------------------------------------------------------|
-19p17-19-19--17p15-----19-19-19-19-19-17-------------|
--------------------17--------------------20-17-20-17-|
------------------------------------------------------|
                                                   ^^Let ring

Then the little bass solo

Bridge  "Find the words to say, how you feel inside..."  repeat x2
D----------------------------------------------------|
A-----------------------8-7------------------------8-|
F----4-5--5-7--4-5--5-7---------4-5--5-7--4-5--5-7---|
C-00----0----0----0----0-----00----0----0----0-------|
G----------------------------------------------------|
C----------------------------------------------------|
  ** * ** * ** * ** * **     ** * ** * ** * ** * *

Bridge(continued)
D--------------------------------------------------------------------------|
A--------------------------------------------------------------------------|
F---------------------------------10\9----------------------------------10-|
C-00-9-10-0-10-12-0-9-10-0-10-12-0-x-x-00-9-10-0-10-12-0-9-10-0-10-12-0-x--|
G-00-9-10-0-10-12-0-9-10-0-10-12-0-8\7-00-9-10-0-10-12-0-9-10-0-10-12-0-8--|
C-00-9-10-0-10-12-0-9-10-0-10-12-0-----00-9-10-0-10-12-0-9-10-0-10-12-0----|

Bridge(continued)
D------------------------------------------------------------------------------------|
A------------------------------------------------------------------------------------|
F--------------------------------------10-\9--------------------------------------10-|
C-00-10-11-12-10-12-0-10-11-12-10-12-12-x--x-00-10-11-12-10-12-0-10-11-12-10-12-12-x-|
G-00-10-11-12-10-12-0-10-11-12-10-12-12-8-\7-00-10-11-12-10-12-0-10-11-12-10-12-12-8-|
C-00-10-11-12-10-12-0-10-11-12-10-12-12------00-10-11-12-10-12-0-10-11-12-10-12-12---|

Then the chorus

Chorus(guitar 2, only near the end of the song) strummed
D------------------------|
A------------------------|
F-7----8----10---15---17-|
C-x----x----x----x----x--|
G-5----6----8----13---15-|
C------------------------|

Outro
D-----------------------------------------|
A-----------------------------------------|
F----------------------------------10\9---|
C-00-9h10-0-10h12-0-9h10-0-10h12-0-x--x-0-|
G-00-9h10-0-10h12-0-9h10-0-10h12-0-8-\7-0-|
C-00-9h10-0-10h12-0-9h10-0-10h12-0------0-|
  **      *       *      *       *      ^Let ring

Comments about this tab

No comments/corrections found. Add your own

Complimentary Christian Ringtones
Dadamobile and CGR have teamed up to bring your favorite Christian artists right to your phone. Sign up today and get 10 complementary ringtones!
Tab Country
Did you know CGR has a sister site w/ country guitar tabs? Well we do! Its called Tab Country. It has a great archive with a lot of country tabs.
Rockin Tabs
Are you looking for a site that has rock guitar tabs? Then Rockintabs.com is the place for you. It is a budding site with many rock guitar tabs. Submit your tab today.
Tab Gallery
Tab Gallery has a compilation of christian, rock, and country tabs all in one place. Come visit us.