Guitar Tabs
song title    band name

Join Us Today!

Don't strum alone...
be a part of the largest online Christian music community. Browse thousands of guitar tabs and chat w/ musicians like yourself.


It's Free!

This tab has been rated a 4.50 out of 5 for accuracy. (2 votes)Sorry, but you must be logged in to rate this tab.
Click here to log-in, or you can click here to register.
(Registration is free)

All songs owned by corresponding publishing company. If you make copies of any song on this website, be sure to report your usage to CCLI.
Submitted by: jkim519

Title: Rain Down
Artist: David Crowder
Tabber: Joe Kim

This intro rox all other intros it's pretty simple. Here it is
After Acoustic Intro

Intro: Elec. Guitar (distorted)

E|------------------------------------------------
B|------------------------------------------------
G|-7-9-9-9-7|[x][x][x][x]|-5-7-7-7-5|[x][x][x][x]|
D|-7-9-9-9-7|[x][x][x][x]|-5-7-7-7-5|[x][x][x][x]|
A|-5-7-7-7-5|[x][x][x][x]|-3-5-5-5-3|[x][x][x][x]|
E|------------------------------------------------

[x]=touch the string and strum do not press

E|-------------3------2----------R
B|----------------3-----------3--E
G|-5-5-5-5-----------------------P
D|-5-5-5-5-----------------------E
A|-3-3-3-3-----------------------A
E|-------------------------------T

Heres the riff after the first verse at the end

E|---3--------3--3----2----
B|-------3-----------------
G|-------------------------
D|-------------------------
A|-------------------------
E|-------------------------

Verse

Em7 C2 Em7

Chorus

G D Em7 C2

And thats that so i hope u liked my tab 
i want feedback! tell me my wrongs and rights

God bless y'all.  if u have any questions email me: joeshmo519@hotmail.com

Comments about this tab

No comments/corrections found. Add your own

Complimentary Christian Ringtones
Dadamobile and CGR have teamed up to bring your favorite Christian artists right to your phone. Sign up today and get 10 complementary ringtones!
Tab Country
Did you know CGR has a sister site w/ country guitar tabs? Well we do! Its called Tab Country. It has a great archive with a lot of country tabs.
Rockin Tabs
Are you looking for a site that has rock guitar tabs? Then Rockintabs.com is the place for you. It is a budding site with many rock guitar tabs. Submit your tab today.
Tab Gallery
Tab Gallery has a compilation of christian, rock, and country tabs all in one place. Come visit us.