Guitar Tabs
song title    band name

Join Us Today!

Don't strum alone...
be a part of the largest online Christian music community. Browse thousands of guitar tabs and chat w/ musicians like yourself.


It's Free!

This tab has not yet been rated for accuracy.Sorry, but you must be logged in to rate this tab.
Click here to log-in, or you can click here to register.
(Registration is free)

All songs owned by corresponding publishing company. If you make copies of any song on this website, be sure to report your usage to CCLI.
Submitted by: bpeery

In the Middle of Me
Todd Agnew
Copyright: 2005 Ardent/Koala Music (Admin. by Ardent Music LLC) 
CCLI Song No. 4432353 
Album: Reflection of Something


Intro:  E A 4X

Verse1
A    E
     A     
     E
     A
     E
     A

Chorus:
     B
A    B
     E
A    E 

Verse2
A    E
     A
     E
     A
     E
     A

Chorus

Bridge:

Intro to bridge:  Power Chords 
     E ----------------------------------
     B ----------9---10---9----------
     G -----11---7----7---7---------
     D ------9-------------------------
     A ---------------------------------
     E ----------------------------------
 
A    E
A    B      A
           C#m7
B
A                                                

Verse:3

     E
     A
     E
     A
     E
     A

Chorus

I have not figured out that neat little riff he does but I will unless some one else
does first. I think this tab at least gets the song in the fingers. I could not find it any where and it 
touched the bones of my soul and had to be able to play it. Please improve it. 
bpeery....><}}}">  

Todd Agnew, In the Middle (Reflection of Somthing Album)

Main Riff

e  --------------x--------------------
B ---------------x-------------------2
G --------1----1-x----------------2--2
D --------0h2----x-------------------2 strum and mute A chord a couple of times, then repeat
A --------0h2----x---4h2-4h2---------0
E ---------------x-----------3--0-----

Comments about this tab

weech_o77 - 2005-10-18

this is what i got for the main intro/verse riff- sounds pretty close

E------------------------------------------------------------------------
B------------------------------------------------------------------------
G-11/13-13-x-----------------------------5/7-7-5-----5-------------------
D--x-----x-x-11p9-11p9------9------x-x-x-5/7-7-5-5---5-------------------
A--9/11-11-x-----------11---7--7-7-x-x-x---------5h7---------------------
E-------------------------0----5-5-x-x-x---------------------------------
(simile on repeat)
well that about gets the gist of it, it would be a pretty tedious job to tab out the second half of that every time they do it different, you might just have to do your own thing. have fun!


Add a comment/correction

Complimentary Christian Ringtones
Dadamobile and CGR have teamed up to bring your favorite Christian artists right to your phone. Sign up today and get 10 complementary ringtones!
Tab Country
Did you know CGR has a sister site w/ country guitar tabs? Well we do! Its called Tab Country. It has a great archive with a lot of country tabs.
Rockin Tabs
Are you looking for a site that has rock guitar tabs? Then Rockintabs.com is the place for you. It is a budding site with many rock guitar tabs. Submit your tab today.
Tab Gallery
Tab Gallery has a compilation of christian, rock, and country tabs all in one place. Come visit us.