Guitar Tabs
song title    band name

Join Us Today!

Don't strum alone...
be a part of the largest online Christian music community. Browse thousands of guitar tabs and chat w/ musicians like yourself.


It's Free!

This tab has been rated a 5.00 out of 5 for accuracy. (4 votes)Sorry, but you must be logged in to rate this tab.
Click here to log-in, or you can click here to register.
(Registration is free)

All songs owned by corresponding publishing company. If you make copies of any song on this website, be sure to report your usage to CCLI.
Submitted by: guitars4jesus

Artist: Blindside
Song: You Must Be Bleeding Under Your Eyelids
Album: The Great Depression (Copyright 2005 DRT Entertainment and WASA)

This is an amazing song from Blindside's newest album, and when I couldn't 
find a tab for it, I decided to write one.  So here it is. 



3/2 denotes a slide from 3rd to 2nd fret

7(^1/2) denotes a half-step bend from the 7th fret



Drop D Tuning (D A D G B E)


Verse 1:

Riff A

e-------------------------
b-------------------------
g-------------------------
d-------------------------
a---10(x8)-4(x8)-5(x16)---
D-------------------------


Riff B

e---------------------------------
b---------------------------------
g---------------------------------
d---------------------------------
a---10(x8)-4(x8)-5(x8)-5-7-8-12---
D---------------------------------

Riff A
Riff B
Riff A
Riff B
Riff A

Riff C

e--------------------------------------------------
b--------------------------------------------------
g--------------------------------------------------
d----------------------7-7-7-7-7(^1/2)-7(^1/2)-7---
a---10(x8)-4(x8)-5(x8)-----------------------------
D--------------------------------------------------


Chorus:

Riff D     (x2)

e---------------------------------------------
b---------------------------------------------
g---------------------------------------------
d---4-4-4-4-4-4-5-7-7-7-7-7(^1/2)-7(^1/2)-7---
a---0-0-0-0-4-4-5-----------------------------
D---0-0-0-0-4-4-5-----------------------------

e---------------------------------------------
b---------------------------------------------
g-----------------6-6-6-6-6(^1/2)-6(^1/2)-6---
d---4-4-4-4-4-4-5-----------------------------
a---0-0-0-0-4-4-5-----------------------------
D---0-0-0-0-4-4-5-----------------------------


Immediately after first chorus:

Riff E

e---------
b---3/2---
g---------
d---------
a---------
D---------


Verse 2:

Riff B
Riff C


Chorus:

Riff D (x2)


Immediately after second Chorus:

e------------------------
b------------------------
g------------------------
d---7(x16)-8(x8)-0(x8)---         (x2)
a---7(x16)-8(x8)-0(x8)---
D---7(x16)-8(x8)-0(x8)---

e------------------------------------------------------------------
b------------------------------------------------------------------
g------------------------------------------------------------------
d---7(x16)-8(x16)-10(x16)-11(x16)-0(x28)-7-7-7-7-7(^1/2)-7(^1/2)---
a---7(x16)-8(x16)-10(x16)-11(x16)-0(x28)---------------------------
D---7(x16)-8(x16)-10(x16)-11(x16)-0(x28)---------------------------

e-------------------------------------------
b-------------------------------------------
g-------------------------------------------
d---0-----4---5-7-7-7-7-7(^1/2)-7(^1/2)-7---
a---0-----4---5-----------------------------
D---0-----4---5-----------------------------

e-------------------------------------------
b-------------------------------------------
g---------------6-6-6-6-6(^1/2)-6(^1/2)-6---
d---4-----4---5-----------------------------
a---0-----4---5-----------------------------
D---0-----4---5-----------------------------


Chorus 2:

Riff D (x4)

Comments about this tab

swimmer009 - 2005-10-09

this is awsome i played it a little different but jus tnotes differnt not rythm good job


365_days_gone - 2006-10-06

Use the low D string for some of the notes during the verse. It's alot easier.


Add a comment/correction

Complimentary Christian Ringtones
Dadamobile and CGR have teamed up to bring your favorite Christian artists right to your phone. Sign up today and get 10 complementary ringtones!
Tab Country
Did you know CGR has a sister site w/ country guitar tabs? Well we do! Its called Tab Country. It has a great archive with a lot of country tabs.
Rockin Tabs
Are you looking for a site that has rock guitar tabs? Then Rockintabs.com is the place for you. It is a budding site with many rock guitar tabs. Submit your tab today.
Tab Gallery
Tab Gallery has a compilation of christian, rock, and country tabs all in one place. Come visit us.