Guitar Tabs
song title    band name

Join Us Today!

Don't strum alone...
be a part of the largest online Christian music community. Browse thousands of guitar tabs and chat w/ musicians like yourself.


It's Free!

This tab has been rated a 3.50 out of 5 for accuracy. (4 votes)Sorry, but you must be logged in to rate this tab.
Click here to log-in, or you can click here to register.
(Registration is free)

All songs owned by corresponding publishing company. If you make copies of any song on this website, be sure to report your usage to CCLI.
Submitted by: WCStudentImpact

Hi everyone, I saw them play this live, I'm pretty sure everything is right.

G C2 Em D Dsus4 Em7 G/B 
3 3  0  2 3     3   3
3 3  0  3 3     3   3
0 0  0  2 2     0   2
0 2  2  0 0     2   0
2 3  2  0 0     2   0
3 3  0  x x     0   2

Intro (Piano) - Just in case you want to try and play it :)

-----------------------------------------------------------
----------3-------3-------3-------3---3-----3-------3-----3--------
--------0-----0---------0-----0------0---0--------0----0-----------
------4---------------4-------------------------4-------------
--------------------3-------3---3---2---2--2--5-------5--5----------
---3--------3---3---------------------------------------------
play that a few times, then this


------------------------------------------0------------------------------0
--------3-------3-------3-------3-------3---3---------3-----3-----3---------
------0-----0---------0-----0---------0-------0-----0---0-----0---------------
----4---------------4---------------4-------------4-------4-----4----4--------
------------------3-------3---0---2-------------5---------------------------
--3-------3---3-------------------------------------------------------------

Verse (Guitar)

G C2 Em D Dsus4 C2 D C2 D x2
then...building off the D
Em7 D, C2 (fast change to) Em7 D...

Chorus
G G/B Em7 D C2 D C2 D C2 (slower) D G

I'm not sure about the bridge so I'll leave that to someone else, good luck and god bless

Comments about this tab

firestrike - 2005-09-20

Well, it's close enough for me, my friend has a book with the sheet music and chords (sheet music part is meaningless to me) however if you're going to try playing this to the actual song recorded, then you're going to want to tune your guitar down a 1/2 step. If you don't like doing that, you can always transpose (sp?) this whole thing down a whole step and then capo the first fret. Either way, it's a 1/2 step off. And I don't know about any normal D chords... All I hear in the song is Dsus.


Add a comment/correction

Complimentary Christian Ringtones
Dadamobile and CGR have teamed up to bring your favorite Christian artists right to your phone. Sign up today and get 10 complementary ringtones!
Tab Country
Did you know CGR has a sister site w/ country guitar tabs? Well we do! Its called Tab Country. It has a great archive with a lot of country tabs.
Rockin Tabs
Are you looking for a site that has rock guitar tabs? Then Rockintabs.com is the place for you. It is a budding site with many rock guitar tabs. Submit your tab today.
Tab Gallery
Tab Gallery has a compilation of christian, rock, and country tabs all in one place. Come visit us.