Guitar Tabs
song title    band name

Join Us Today!

Don't strum alone...
be a part of the largest online Christian music community. Browse thousands of guitar tabs and chat w/ musicians like yourself.


It's Free!

This tab has not yet been rated for accuracy.Sorry, but you must be logged in to rate this tab.
Click here to log-in, or you can click here to register.
(Registration is free)

All songs owned by corresponding publishing company. If you make copies of any song on this website, be sure to report your usage to CCLI.
Submitted by: godsmiracle88

Hey, this is my first tab. I play guitar chords on piano. Here's 
my version in the key of D. Please leave comments/suggestions!

I Give You My Heart

Verse:
D Bm
G A
Bm D
A G/B
D Bm
G A
Bm D
A G

Chorus:
D A
Bm
G/B A/C#
D A
Bm
G A D

Morgan, Reuben © 1992 Integrity’s Hosanna! Music
CCLI License No. 145696

Comments about this tab

godsixstringer - 2006-05-10

Try the intro/solo (in G) this way, it sounds great with a little distortion and alot of reverb(Hall):

e--------------------------------10-10--------------------------------------
B-5--5-7-8-7-8-7----------------8--8---\5--5-7-8-7-8-7----------------------
G-----------------7------7--7-9------------------------7--------------12-14b
D--------------------5h7---------------------------------5-7/12-12-14--------
A----------------------------------------------------------------------------
E----------------------------------------------------------------------------

e------------------------------------------------------------------------
B------------------------------------------------------------------------
G-12-14b-12-14b-12------------------------------------------------------
D------------------------------------------------------------------------
A------------------------------------------------------------------------
E------------------------------------------------------------------------


psalms125.1 - 2006-08-02

Yeah, I think that's right. To make it sound a bit better, you could use this:

D Bm
G D A
Bm A D
C G A
D Bm
G D A
Bm A D
C G A

D A
Em
G A D
D A
Em
G A D


guitarist88 - 2006-11-14

the chords is way too low...
play it in G


Add a comment/correction

Complimentary Christian Ringtones
Dadamobile and CGR have teamed up to bring your favorite Christian artists right to your phone. Sign up today and get 10 complementary ringtones!
Tab Country
Did you know CGR has a sister site w/ country guitar tabs? Well we do! Its called Tab Country. It has a great archive with a lot of country tabs.
Rockin Tabs
Are you looking for a site that has rock guitar tabs? Then Rockintabs.com is the place for you. It is a budding site with many rock guitar tabs. Submit your tab today.
Tab Gallery
Tab Gallery has a compilation of christian, rock, and country tabs all in one place. Come visit us.