Guitar Tabs
song title    band name

Join Us Today!

Don't strum alone...
be a part of the largest online Christian music community. Browse thousands of guitar tabs and chat w/ musicians like yourself.


It's Free!

Audio Adrenaline - Man Of God

This tab has been rated a 5.00 out of 5 for accuracy. (4 votes)Sorry, but you must be logged in to rate this tab.
Click here to log-in, or you can click here to register.
(Registration is free)

All songs owned by corresponding publishing company. If you make copies of any song on this website, be sure to report your usage to CCLI.
!NOTE!|My rhythm may be a little off in some spots but,|!NOTE!
      |these are all the correct notes and cords.      |
      '------------------------------------------------'

 Song: Man Of God
Group: Audio Adrenaline
Album: Bloom
--------------------------------
Symbols used:
~=hold note
/=slide up to
\=slide down to
b=bend (if you see 2 "b"s in the same bend section, it
        means bend the string then let it back).
h=hammer on
p=pull off
x=mute
--------------------------------

Riff 1:
e|-----------------------------|
b|------3p0--------------------|
g|------------4p2-2------------|
d|--0-0-----0-------4-4p2-2h4--|
a|-----------------------------|
e|-----------------------------|

Riff 2:
e|----------------------------------2--|
b|------3p0-------------------------3--|
g|------------4p2--2----------------2--|
d|--0-0-----0---------4--4p2--2h4---0--|
a|----------------------------------0--|
e|----------------------------------x--|

Riff 3:
e|-----------------------------|
b|-----------------------------|
g|----------2-------2h4p2------|
d|--2-2-2h4-----2h4-------4p2--|
a|-----------------------------|
e|-----------------------------|

Riff 4:
e|---------------------------|
b|---------------------------|
g|----------2-------2h4p2----|
d|--2-2-2h4-----2h4-------4--|
a|---------------------------|
e|---------------------------|

Riff 5:
e|--2-------2---2--|
b|--3-------3---3--|
g|--0-------0---0--|
d|--0-------0---0--|
a|--2---3-3-3---x--|
e|--0-------x---3--|

Riff 6:
e|---------------------|
b|--2-2-2-2-2-2-2-2-2--|
g|--2-2-2-2-2-2-2-2-2--|
d|--2-2-2-2-2-2-2-2-2--|
a|--0-0-0-0-0-0-0-0-0--|
e|---------------------|

Riff 7:
e|--3---3p2-------2---------------------3-----------|
b|--3-------3-----3---/5--5-5-5b6b5-3---3---5~~~p3--|
g|--0---------2---2---------------------0-----------|
d|--0-------------0---------------------0-----------|
a|--2-------------0---------------------2-----------|
e|--3-------------x---------------------3-----------|

Riff 8:
e|--3---3p2-------2---------------------3---5---------------|
b|--3-------3-----3---/5--5-5-5b6b5-3---3---5---------------|
g|--0---------2---2---------------------0---6--6-6-6-6-6-6--|
d|--0-------------0---------------------0---7--7-7-7-7-7-7--|
a|--2-------------0---------------------2---7--7-7-7-7-7-7--|
e|--3-------------x---------------------3---5--5-5-5-5-5-5--|

Riff 9:
e|--3-------------2---------------------3---------|
b|--3---/12~~~\---3---/5--5-5-5b6b5-3---3---5~~~--|
g|--0---/12~~~\---2---------------------0---------|
d|--0---/12~~~\---0---------------------0---------|
a|--2-------------0---------------------2---------|
e|--3-------------x---------------------3---------|

Riff 10:
e|----------------------------------------------------------------|
b|----------------------------------------------------------------|
g|--9--9-9-9b10b9-7---9--9-9-9b10b9-7---9--9-9-9b10b9-7~~~/14~~~--|
d|----------------------------------------------------------------|
a|----------------------------------------------------------------|
e|----------------------------------------------------------------|

Riff 11:
e|-----------17-----------|
b|------------------------|
g|--16-14-14----14-14-14--|
d|------------------------|
a|------------------------|
e|------------------------|

Riff 12:
e|-----------------------------------------------------------|
b|-----------------------------------------------------------|
g|--16-14-14-12-12-11-11-12-11-9\7-7-7--7-7-7b8b7-4-4-4--4/--|
d|-----------------------------------------------------------|
a|-----------------------------------------------------------|
e|-----------------------------------------------------------|

Riff 13:
e|---------------------------17-----|
b|----------------------------------|
g|--16-14-14--16-14-16-16-14----14--|
d|----------------------------------|
a|----------------------------------|
e|----------------------------------|

Riff 14:
e|-------------------------------------------|
b|-----------------------8-7-5--5-5-5b6b5-3--|
g|--16-14-14-12-12-11-11---------------------|
d|-------------------------------------------|
a|-------------------------------------------|
e|-------------------------------------------|

------------------------------------------------------------

Riff 1
Sometimes I'm a liar
Riff 1
Sometimes I'm a fake
Riff 1
Sometimes I'm a hypocrite
     Riff 3
That everybody hates

Riff 1
Sometimes I'm a poet
Riff 1
Sometimes I'm a preacher
Riff 1
Sometimes I watch life go by
Riff 4
Sitting on the bleachers

         Riff 5
But I've never been left alone

In any problem that I've known

Even though I'm to blame
           Riff 5
There were times when things were dark

And I've been known to miss the mark
                     Riff 6
But someone fixed my aim

                Riff 7
Sometimes I'm a man of God

Sometimes I'm all right

Sometimes I lay down, close my eyes and pray to God

Riff 1
Sometimes I don't feel good
     Riff 1
It's hard to start the day
     Riff 1
It's hard to climb the obstacles
     Riff 3
That sometimes come my way

     Riff 1
If I make it, I'm a good man
       Riff 1
Am I a bad man if I fail
  Riff 1
I know I'm never good enough
   Riff 4
So I let grace prevail

        Riff 5
Oh I've never been left alone

In any problem that I've known

Even though I'm to blame
           Riff 5
There were times when things were dark

And I've been known to miss the mark
                     Riff 6
But someone fixed my aim

                Riff 7
Sometimes I'm a man of God

Sometimes I'm all right

Some times I lay down, close my eyes and pray to God

I'm ready for the night

Riff 10

Riff 11
Right now I'm all right
Riff 11
Right now I'm all right
Riff 12
Sometimes I'm all right
Riff 13
I'm all right
Riff 13
I'm all right
Riff 14
Thank God, thank God

                       Riff 8
'Cause sometimes I'm a man of God

Sometimes I'm all right

Sometimes I lay down, close my eyes and pray to God

                Riff 9
Sometimes I'm a man of God

Sometimes I'm all right

Some times I lay down, close my eyes and pray to God

I'm ready for the night

Riff 2


                 ______________________________________
                |In the CD's lyrics it says "all right"|
                |instead of "alright", so I didn't get |
                |that part wrong (in case you were     |
                |wondering).                           |
                '--------------------------------------'

Comments about this tab

Tenth Ave rocks - 2008-11-08

sounds great, great job.


Add a comment/correction

Complimentary Christian Ringtones
Dadamobile and CGR have teamed up to bring your favorite Christian artists right to your phone. Sign up today and get 10 complementary ringtones!
Tab Country
Did you know CGR has a sister site w/ country guitar tabs? Well we do! Its called Tab Country. It has a great archive with a lot of country tabs.
Rockin Tabs
Are you looking for a site that has rock guitar tabs? Then Rockintabs.com is the place for you. It is a budding site with many rock guitar tabs. Submit your tab today.
Tab Gallery
Tab Gallery has a compilation of christian, rock, and country tabs all in one place. Come visit us.