Guitar Tabs
song title    band name

Join Us Today!

Don't strum alone...
be a part of the largest online Christian music community. Browse thousands of guitar tabs and chat w/ musicians like yourself.


It's Free!

This tab has been rated a 3.50 out of 5 for accuracy. (6 votes)Sorry, but you must be logged in to rate this tab.
Click here to log-in, or you can click here to register.
(Registration is free)

All songs owned by corresponding publishing company. If you make copies of any song on this website, be sure to report your usage to CCLI.
Submitted by: sXcountry

Studying Politics
Emery
The Question

This is a sweet song, but I think there are 2 guitars, 
if there are, than this is G1’s part mostly…

1st Verse
e|-------------------|
B|-------------------|
G|-------------------|
D|-33---00---22---22-|
A|-33---00---22---22-|
D|-33---00---22---22-|

Pre-chorus
e|----------|
B|----------|
G|-10-10-10-|
D|--x--x--x-|
A|--8--8--8-|
D|----------|

Chorus (2X)
e|----------X2----------|---------------------------------------|
B|----------------------|---------------------------------------|
G|-------------10-10-10-|------------------------------10-10-10-|
D|-55555555555--x--x--x-|333333333333*-3*-333333333333--x--x--x-|
A|-55555555555--8--8--8-|333333333333*-3*-333333333333--8--8--8-|
D|-55555555555----------|333333333333*-3*-333333333333----------|

Post Chorus
e|--------------play-2X-------|--1st-time-|---end---|
B|----------------------------|-----------|---------|
G|----------------------------|-----------|---------|
D|-33xxxxxx-00xxxxxx-22xxxxxx-|-22xx-22xx-|-222-222-|
A|-33xxxxxx-00xxxxxx-22xxxxxx-|-22xx-22xx-|-222-222-|
D|-33xxxxxx-00xxxxxx-22xxxxxx-|-22xx-22xx-|-222-222-|

Verse 2 P.M.
e|----------2X----------|-------1⅔X-------|
B|----------------------|-----------------|
G|----------------------|-----------------|
D|-33---00---22---22-22-|-3----0----2-----|
A|-33---00---22---22-22-|-3-8X-0-8X-2-16X-|
D|-33---00---22---22-22-|-3----0----2-----|

Pre chorus
Same as above

Chorus
Same as above



Bridge 1
e|---------------------------------|
B|---------------------------------|
G|-15-15-15-15--10-10-10-10-10--11-|
D|--x--x--x--x---x--x--x--x--x---x-| 8X
A|-13-13-13-13---8--8--8--8--8---9-|
D|---------------------------------|

Bridge 2
e|----------|	 |-----------|
B|----------|	 |-----------|
G|----15----|	 |-1515-1313-|
D|-------15-| X? |-----------| X?
A|-13-------|	 |-----------|
D|----------|	 |-----------|

Outro
Same as post chorus

Comments about this tab

ryan_grooms22 - 2005-08-25

not to be mean but this tab is way wrong for one this son is tuned down a half step the chords you have are way wrong but good job on trying though
-ryan_grooms22


Adam K - 2005-09-23

amen.


TG-da-JF - 2005-12-15

someone plz post a tab thats right then


acousticpunker - 2006-02-23

Any ideas about the intro before the distortion??


emopeplerntcool - 2006-05-06

its all power chords dude its played in standard tuning half a step down ive been to shows and been close enough to see the chords that they play and its definately in standard tuning


sXcountry - 2006-06-12

wow...that is bad...

i have gotten soooooo much better at tabbing since i did that...


Add a comment/correction

Complimentary Christian Ringtones
Dadamobile and CGR have teamed up to bring your favorite Christian artists right to your phone. Sign up today and get 10 complementary ringtones!
Tab Country
Did you know CGR has a sister site w/ country guitar tabs? Well we do! Its called Tab Country. It has a great archive with a lot of country tabs.
Rockin Tabs
Are you looking for a site that has rock guitar tabs? Then Rockintabs.com is the place for you. It is a budding site with many rock guitar tabs. Submit your tab today.
Tab Gallery
Tab Gallery has a compilation of christian, rock, and country tabs all in one place. Come visit us.