Guitar Tabs
song title    band name

Join Us Today!

Don't strum alone...
be a part of the largest online Christian music community. Browse thousands of guitar tabs and chat w/ musicians like yourself.


It's Free!

This tab has been rated a 4.75 out of 5 for accuracy. (4 votes)Sorry, but you must be logged in to rate this tab.
Click here to log-in, or you can click here to register.
(Registration is free)

All songs owned by corresponding publishing company. If you make copies of any song on this website, be sure to report your usage to CCLI.
Submitted by: Firesaint89

Artist: John Reuben
Song: Nuisance
Album: The Boy vs. The Cynic

I think this is the correct way to play the song
because Erockvillage's version of the picked part was good, just
the notes have to coincide with the chords and i got this:

1st fret capo:A        E        F#m	D

And i think that the pick goes...(without the capo)

-----------------------------------------
-----------------------------------------
-----------------------------------------
---8---8-6-6--------8---8-9--9-8-6-------
-----9-------9-9------9------------9-----
-----------------------------------------


-----------------------------------------
-----------------------------------------
-----------------------------------------
-------8-6-6----------8---8-9--9-8-6-----
-----9-------9-9--------9------------9---
-----------------------------------------

plz ad comments and help me if i'm wrong... this is my first tab
GodBless! Who's da man? Jesus!

Comments about this tab

AceHigh92 - 2006-03-08

hey on the plucky part what strings are u using?


Xo PePpEr NoSe - 2006-12-28

yeah... i think thats right... -emily-


Add a comment/correction

Complimentary Christian Ringtones
Dadamobile and CGR have teamed up to bring your favorite Christian artists right to your phone. Sign up today and get 10 complementary ringtones!
Tab Country
Did you know CGR has a sister site w/ country guitar tabs? Well we do! Its called Tab Country. It has a great archive with a lot of country tabs.
Rockin Tabs
Are you looking for a site that has rock guitar tabs? Then Rockintabs.com is the place for you. It is a budding site with many rock guitar tabs. Submit your tab today.
Tab Gallery
Tab Gallery has a compilation of christian, rock, and country tabs all in one place. Come visit us.