Guitar Tabs
song title    band name

Join Us Today!

Don't strum alone...
be a part of the largest online Christian music community. Browse thousands of guitar tabs and chat w/ musicians like yourself.


It's Free!

This tab has been rated a 4.00 out of 5 for accuracy. (1 vote)Sorry, but you must be logged in to rate this tab.
Click here to log-in, or you can click here to register.
(Registration is free)

All songs owned by corresponding publishing company. If you make copies of any song on this website, be sure to report your usage to CCLI.
Submitted by: ludabigfoot

This tab i'm sure is 100% correct but i'm not sure about the "A" in the chorus-
if you find something that works better-use it but the "A" sounds decent.

Intro:

e------------------------------------------------
B------------------------------------------------
G----1--------1--------1--------2----------------
D---2--2-----2--2-----2--2-----2--2--------------
A---------0--------------------------------------
E-0----------------0--------2-------------------- x2

Verses are exactly the same as intro and chords start at the chorus

Chorus:

EE! (! means stop)
BB!
A E
EE!
BB!
A E

Bridge:

E A B A 

repeated till it sounds right then you just start over... See ya.

Comments about this tab

lumpycustard - 2005-12-04

pretty good. I think the chorus goes like more of an

EE!
BB!
C#m A

And etc. But good job on the tab.


kpilkey - 2005-12-07

-----------------------------------------------------------------
-----------------------------------------------------------------
--------1-----------1-----------1-----------2--------------------
-----2-----2-----2-----2-----2-----2-----2-----2-----------------
-----------------------------------------------------------------
--0-----------2-----------0-----------2--------------------------

you almost had it right. just instead of the open A its an F#.


Add a comment/correction

Complimentary Christian Ringtones
Dadamobile and CGR have teamed up to bring your favorite Christian artists right to your phone. Sign up today and get 10 complementary ringtones!
Tab Country
Did you know CGR has a sister site w/ country guitar tabs? Well we do! Its called Tab Country. It has a great archive with a lot of country tabs.
Rockin Tabs
Are you looking for a site that has rock guitar tabs? Then Rockintabs.com is the place for you. It is a budding site with many rock guitar tabs. Submit your tab today.
Tab Gallery
Tab Gallery has a compilation of christian, rock, and country tabs all in one place. Come visit us.