Guitar Tabs
song title    band name

Join Us Today!

Don't strum alone...
be a part of the largest online Christian music community. Browse thousands of guitar tabs and chat w/ musicians like yourself.


It's Free!

This tab has been rated a 5.00 out of 5 for accuracy. (2 votes)Sorry, but you must be logged in to rate this tab.
Click here to log-in, or you can click here to register.
(Registration is free)

All songs owned by corresponding publishing company. If you make copies of any song on this website, be sure to report your usage to CCLI.
Submitted by: What5647

Sunday Bloody Sunday
Pillar
Flicker Records
Album: In the Name of Love-Artist United for Africa

I'll ive gotten done on this tab so far is the intro/1at verse,
buy i hope to add more in the future as i figure it out. this song is 
tuned in drop c. (and if anyone wants to debate it's tuning Rob 
told me it was drop c)

one more thing, my guitar is tuned to drop d, so i'm converting this 2 drop
c on paper, i hope i did it right.

d-------------------------------------------- repeat i don't know how
a------5---------5---------3---------3------- many times, throughout
f----5---5-----5---5-----5---5------5---5---- the intro and 1st verse.
c--7---------5---------3------3---3----------
g--------------------------------------------
c--------------------------------------------


i hope that made sense, my first tab. 

Comments about this tab

Greenleaf - 2005-09-07

Sounds Right But The Tuning Is like this
C
F
Bb
Eb
G
C


What5647 - 2005-09-09

Rob told me it was in drop c, and drop c is is cgcfad, right? (rob is pillar's vocalist, if you don't know)


What5647 - 2005-09-09

oh, and i am working on the rest of the song...slowly...


What5647 - 2005-09-10

whoops, i think i did it too high. it should be:

drop c

c----------5----------5--------3--------3---
g--------5---5------5---5----5---5----5---5-
c------7----------5--------3--------3-------

if u do it as high as my first one u cant do rest of song, i transposed it down a key (or 2 or 3)


What5647 - 2005-09-11

lol, i'm so messed up...shift the whole thing up 2 frets, starts on 9, not 7...


guitar4PGR - 2005-12-19

hay iv got to talk to noah about pedals and guitar stuff and u guys would have it less work if u just keep in EAGDBE tuning and us a Boss OC-3 SUPER Octave Pedal


bass_man65 - 2006-04-10

Dang, does everyone here know at least someone in the band? great song though


susbandgeek1990 - 2006-05-08

Wazzup rockers......I figured it out a loooooong time ago(like 6 months). But wasn't really sure about it. But I think I found it.
Drop C(CGCFAD)

Intro (Last part is palm muted)
-----2-----2-----0-----2- --------------------------
---3-----3-----3-----3--- --------------------------
-4-----2-----0-----0-----(4x) --------------------------
------------------------- -0--2--0-2222222222222222-
------------------------- -0--2--0-2222222222222222-
------------------------- -0--2--0-2222222222222222-

then.. Verse(Power chords muted)
--------- ------------------------------------
--------- ------------------------------------
-4--0--7- -4444-------------------------------
-4--0--5-(2x) -4444-4b-0000----2222----22----2----
-2--0--5- -2222----0000-5b-2222-5b-22-5b-2-5b-
--------- ---------0000----2222----22----2----


susbandgeek1990 - 2006-05-08

Sorry guys...I'll re-do it.

Intro (Last part is palm muted)
-----2-----2-----0-----2- --------------------------
---3-----3-----3-----3--- --------------------------
-4-----2-----0-----0-----(4x) --------------------------
------------------------- -0--2--0-2222222222222222-
------------------------- -0--2--0-2222222222222222-
------------------------- -0--2--0-2222222222222222-

then.. Verse(Power chords muted)
--------- ------------------------------------
--------- ------------------------------------
-4--0--7- -4444-------------------------------
-4--0--5-(2x) -4444-4b-0000----2222----22----2----
-2--0--5- -2222----0000-5b-2222-5b-22-5b-2-5b-
--------- ---------0000----2222----22----2----


susbandgeek1990 - 2006-05-08

It did it agaain. Ok one more time. I'll do it dirrerently this time.


susbandgeek1990 - 2006-05-08

It did it agaain. Ok one more time. I'll do it dirrerently this time.

Intro
-----2-----2-----0-----2-
---3-----3-----3-----3---
-4-----2-----0-----0-----(4x)
-------------------------
-------------------------
-------------------------

(Last part is palm muted)
--------------------------
--------------------------
-------------------------
-0--2--0-2222222222222222-
-0--2--0-2222222222222222-
-0--2--0-2222222222222222-


then..
---------
---------
-4--0--7-
-4--0--5-(2x)
-2--0--5-
---------

Verse(Power chords muted)
------------------------------------ ------------------------------------
-4444-------------------------------
-4444-4b-0000----2222----22----2----
-2222----0000-5b-2222-5b-22-5b-2-5b-
---------0000----2222----22----2----

THERE!!!!!!


downer227 - 2006-11-08

can somebody please tell me and other users how to tune it that way, i kno how to do it in drop D but not in c. but thanks anyways.


downer227 - 2006-11-13

is the u2 version the same? (this was originaly a song by U2)


headbanger13 - 2007-01-23

to tune it in drop C, you tune it just like drop D, but tune all the strings down a step


Add a comment/correction

Complimentary Christian Ringtones
Dadamobile and CGR have teamed up to bring your favorite Christian artists right to your phone. Sign up today and get 10 complementary ringtones!
Tab Country
Did you know CGR has a sister site w/ country guitar tabs? Well we do! Its called Tab Country. It has a great archive with a lot of country tabs.
Rockin Tabs
Are you looking for a site that has rock guitar tabs? Then Rockintabs.com is the place for you. It is a budding site with many rock guitar tabs. Submit your tab today.
Tab Gallery
Tab Gallery has a compilation of christian, rock, and country tabs all in one place. Come visit us.