Guitar Tabs
song title    band name

Join Us Today!

Don't strum alone...
be a part of the largest online Christian music community. Browse thousands of guitar tabs and chat w/ musicians like yourself.


It's Free!

This tab has been rated a 2.00 out of 5 for accuracy. (4 votes)Sorry, but you must be logged in to rate this tab.
Click here to log-in, or you can click here to register.
(Registration is free)

All songs owned by corresponding publishing company. If you make copies of any song on this website, be sure to report your usage to CCLI.
Submitted by: crazydan

What the world will never take
Tab
Guitars 1 + 2
   I have listened through the song a couple of times and I have the dvd so
   from that I have written this tab for the 2 guitar parts played in the DVD
   Although I do not know how they are exactly divided so I have done my 
   best to split the parts equally without it getting musically messy and muddy. 

Introduction - There are multiply ways to play this part. 
I have shown 2 versions.
I personally like to mix the 2 but whateva suits your fingers....
Guitar1
 e---------------------------------|   |-----------------------------------
 b---------------------------------|   |-----------------------------------
 g---------------------------------|or |-----------------------------------
 D------7-6*6-6h7--------7-6*6-6h7-|   |--------7-66-6h7---0-0-7-66-6h7----
 A-----------------5-5-------------|   |----0-0----------------------------
 E--5-5----------------------------|   |-----------------------------------

*At these points chuck a fast hard muted pick to fill-in the gap in the 
timeing

Verse - Guitar 1 brings the volume of the riff down to work with the bass and 
the vocals

        Guitar2 
"..compare"
            e---00--------
            b---33--------
            g---22--------
            D-------------
            A-------------
            E-------------
  
Pre-Chorus
Guitar 1- Adds in some delay or reverb to fill the sound out and drop
previous riff to play :
 e-------------------------------------------------------------------------
 b-------------------------------------------------------------------------
 g-----6~p4----66p4-66p4-6~-6p4-66p4--6-6-4--------------------------------
 D-------------------------------------------------------------------------
 A-------------------------------------------------------------------------
 E-------------------------------------------------------------------------

Guitar 2
..compare"                                            (p.m..........)
 e------(00)----------------------------------------------------------------
 b------(33)----------------------------------------------------------------
 g------(22)---------------44-------77--------------------------------------
 D--------------44---------44-------77----------------77777777777/9999---7--
 A--------------44---------22-------55----------------77777777777/9777---7--
 E--------------22------------------------------------55555555555/7777---5--
          
Chorus
Guitar 1 - Light overdrive (More treble that bass in tone,to 'complement' 
                             the higher pitched vocals)
 e--------------------------------------------------------------------------
 b-----------------------------------------------------------^---v----------
 g----------------------------------------------------7{let--7---7----------
 D-(7)----7........................................---7{ring-7---7---4---4--
 A-(7)----7........................................---5{-----5---5---4---4--
 E-(5)----5........................................------------------2---2--
  
 e--------------------------------------------------------------------------
 b-------^v-----------------------------------------------------------------
 g--4----44\7 -------7------------------------------------------------------
 D--4----44\7--------7---------7-----7......................................
 A--2----22\5--------5---------7-----7......................................
 E-------------------------(0h)5-----5......................................
            
 e-------------------------------------------------------------------------
 b-------------------------------------------------------------------------
 g-------------------------------------------------------------------------
 D..................---------4--4--4--4--4--4--4--4------------------------
 A..................---------4--4--4--4--4--4--4--4------------------------
 E..................---------2--2--2--2--2--2--2--2------------------------
      
 e-------------------------------------------------------------------------
 b-------------------------------------------------------------------------
 g-------4------4---4---4----7---7-----------------------------------------
 D-------4------4---4---4----7---7----7------------------------------------
 A-------2------2---2---2----5---5----7--(Back into a loop of the intro riff)
 E------------------------------------5------------------------------------


 Guitar 2 -Heavy distorion with a small amount of reverb or sustain

 e---------------------------------------------------------------------------
 b---------------------------------------------------------------------------
 g----------------------------------------------------7{let-----------11--11-
 D-(7)----7.......................................----x{ring----------x---x--
 A-(7)----x.......................................----5{--------------9---9--
 E-(5)----5.......................................---------------------------
  
 e-------------------------------------------------------------------------
 b-------------------------------------------------------------------------
 g--4----------------7-----------------------------------------------------
 D--x----------------x---------7-----2......................................
 A--2----------------5---------7-----0......................................
 E-------------------------(0h)5-------------------------------------------
            
 e-------------------------------------------------------------------------
 b-------------------------------------------------------------------------
 g-------------------------------------------------------------------------
 D..................---------16-16-16-16-16-16-16-16-----------------------
 A..................----------x-x---x--x--x--x--x--x-----------------------
 E---------------------------14-14-14-14-14-14-14-14-----------------------

 e-------------------------------------------------------------------------
 b-------------------------------------------------------------------------
 g-------4------4---4---4----7---7---(Loud)--------------------------------
 D-------4------4---4---4----7---7----7{let ring---------------------------
 A-------2------2---2---2----5---5----7{-----------------------------------
 E------------------------------------5{-----------------------------------


Verse- Same as last time although your own modifications could be made.
It is shorter by half compared to the previous one.
Pre-chorus - This is exaclty the same as before.
Chorus- Chours is repeated twice. 
At the end of the reapeat guitar 2's last chord rings
out with a phaser of some sort on it and the bass play a a riff
to que the guitar 1's solo. Guitar gains small amount of feedback while 
the bass is doing that guitar.

Solo
Guitar 1- As for the voice regarding this part I have listened hard and watched the DVD
I am convinced that tone changes completely due to a wah pedal pushed all 
the way forward although it could be to do with the fact he is using a 
telecaster
but see what works for you
                                               
 e-----------------------------------------------------------------------------
 b-------10-------10------------10-12-12b(14)p10-------------------------------
 g-11 11----11-11----11(11)10-10---------------------6~-----6~---------8~---8~-
 D------------------------------------------------7-7---7-7----7-7/9-9---9-9---
 A-----------------------------------------------------------------------------
 E-----------------------------------------------------------------------------
 
 e-----------------------------------------------------------------------------
 b-------10-------10------------10-12-12b(14)p10-------------------------------
 g-11 11----11-11----11(11)10-10--------------------6~-----6~---------8~---8~-
 D----------------------------------------------7-7---7-7----7-7/9-9---9-9-----
 A-----------------------------------------------------------------------------
 E-----------------------------------------------------------------------------

 e------------------------Big harsh slide--------------------------------------
 b---------------------------/-------------------------------------------------
 g-8888888888888888888888---/--------------------------------------------------
 D-9999999999999999999999--/--7------------------------------------------------
 A------------------------/---7------------------------------------------------
 E----------------------------5------------------------------------------------

Guitar2-Solo part when there is the build up at the end of the solo when guitar1 
plays     8
          9, guitar 2 subtly plays

 e---------
 b---------
 g--4......
 D--x......
 A--2......

 E--------

Repeat Chorus twice

Ending
Guitar 1
         (pm..) 
 e-----------------------------------------------------------------------------
 b-----------------------------------------------------------------------------
 g------------------------7.........-------------------------------------------
 D-----2(2222)7-----------7.........----2---2--------2-2----2---2----7---------
 A-----0(0000)7-----------5.........----0---0--------0-0----0---0----7---------
 E------------5------------------------------------------------------5---------
      
Guitar 2 Heavy Distortion
 e------------------------------------------------------------------------------
 b------------------------------------------------------------------------------
 g-----------------------7---------------------------------7--------------------
 D-----7-----------------x--------------7------------------7---------7----------
 A-----7-----------------5--------------7------------------5---------7----------
 E-----5--------------------------------5----------------------------5----------

Finnish with all your bands power!!!
Thats It!!!

Thank you for looking at my tab this my first full submitted tab...I would be 
really pleased if you could rate it because I would love to know that I have 
helped some use this song to connect with God.Hillsong have blessed me in
their approach to worship I believe that however commericial
or however critised they are,God is the center of their work.
I feel that my worship has changed greatly so I praise God for them.
Please Rate my first tab!!!










Comments about this tab

jesus_freak182 - 2006-03-24

Awesome Tab! I tabbed this song out ages ago and then I found this website to find you picked up every note the same to me! Well done


Add a comment/correction

Complimentary Christian Ringtones
Dadamobile and CGR have teamed up to bring your favorite Christian artists right to your phone. Sign up today and get 10 complementary ringtones!
Tab Country
Did you know CGR has a sister site w/ country guitar tabs? Well we do! Its called Tab Country. It has a great archive with a lot of country tabs.
Rockin Tabs
Are you looking for a site that has rock guitar tabs? Then Rockintabs.com is the place for you. It is a budding site with many rock guitar tabs. Submit your tab today.
Tab Gallery
Tab Gallery has a compilation of christian, rock, and country tabs all in one place. Come visit us.