Guitar Tabs
song title    band name

Join Us Today!

Don't strum alone...
be a part of the largest online Christian music community. Browse thousands of guitar tabs and chat w/ musicians like yourself.


It's Free!

This tab has been rated a 3.67 out of 5 for accuracy. (3 votes)Sorry, but you must be logged in to rate this tab.
Click here to log-in, or you can click here to register.
(Registration is free)

All songs owned by corresponding publishing company. If you make copies of any song on this website, be sure to report your usage to CCLI.
Submitted by: hangookguy627

This is the tab for the main picking electric in the song Deeper in Hillsong Unitedís Look to You album.
Have fun with it! I kinda got lazy at the end... but oh well.  
								-daniel chae

Rest for 4 measures (drum intro)

Intro:
 E |--0----0----0----0--|---------------------|-----------------------|------------------------|
 B |--------------------|--0-----0--1-----1---|-------3----------1----|---------0-1------1-----|
 G |-----0---------0----|-----2---------2-----|--2----------0---------|--1---2--------2---2p0--|
 D |----3---------5-----|----5---------2------|-----0---0------2---2--|-----2--------2---------|
 A |--------------------|---------------------|-----------------------|------------------------|
 E |--------------------|---------------------|-----------------------|------------------------|

 |------0------0---0-----|--------------------|-----------------------|------------------------|
 |-----------------------|--0-----0--1-----1--|-------3----------1----|---------0-1------1-----|
 |-----0---0----------0--|-----2---------2----|--2----------0---------|--1---2--------2---2p0--|
 |--3-------------5------|----5---------2-----|-----0---0------2---2--|-----2--------2---------|
 |-----------------------|--------------------|-----------------------|------------------------|
 |-----------------------|--------------------|-----------------------|------------------------|

Verse 1:
 |------0-----------0----|--------------------|-----------------------|------------------------|
 |-----------------------|--0-----0--1-----1--|-------3----------1----|---------0-1------1-----|
 |-----0---0------0---0--|-----2---------2----|--2----------0---------|--1---2--------2---2p0--|
 |--3-----------5--------|----5---------2-----|-----0---0------2---2--|-----2--------2---------|
 |-----------------------|--------------------|-----------------------|------------------------|
 |-----------------------|--------------------|-----------------------|------------------------|
  Light    to men...          Love of God....       Healing for...          the wounded heart...

 |------0-----------0----|--------------------|-----------------------|------------------------|
 |-----------------------|--0-----0--1-----1--|-------3----------1----|---------0-1------1-----|
 |-----0---0------0---0--|-----2---------2----|--2----------0---------|--1---2--------2---2p0--|
 |--3-----------5--------|----5---------2-----|-----0---0------2---2--|-----2--------2---------|
 |-----------------------|--------------------|-----------------------|------------------------|
 |-----------------------|--------------------|-----------------------|------------------------|
   Like a      child... I quiet my soul...     Hear your voice...  Surround me Lord...

 |------0------3---------|---------------------|---------------------|---------------------|
 |-----------------------|---------------------|---------------------|---------------------|
 |-----0---0------0------|----0---0-----0---0--|----0---0-----0---0--|----0---0-----0---0--|
 |--3------------5--5----|-5---5-----5---5-----|-5---5-----5---5-----|-5---5-----5---5-----|
 |-----------------------|---------------------|---------------------|---------------------|
 |-----------------------|---------------------|---------------------|---------------------|

but here I think you should play the keyboard/guitar 1 part which goes
(thereís too much going on so this is just my arrangement of keyboard and guitar part)

 |-----------8----------|--5----------------|-----------8----------|--7----7---8p7-----7----|
 |--5--6-8--------------|-------------------|--5--6-8--------------|-----8----8------8------|
 |----------------------|-------------------|----------------------|------------------------|
 |----------------------|-------------------|----------------------|------------------------|
 |----------------------|-------------------|----------------------|------------------------|
 |----------------------|-------------------|----------------------|---------------------------|

Chorus:
 |----------------------|---------------------|----------------------|-----------------------|
 |--1-----1----1-----1--|--0-----0----0----0--|--1------1---1-----1--|--1-----1---0-------0--|
 |-----0-----------0----|-----2----------2----|------0---------0-----|-----0-----------------|
 |----2-----------2-----|----5----------5-----|-----2---------3------|----2-----------5------|
 |----------------------|---------------------|----------------------|-----------------------|
 |----------------------|---------------------|----------------------|-----------------------|
 Jesus.....                             Hold me Into your arms...       Into your arms    And

 |-----------------------|--------------------|----------------------|----------------------|
 |-1------1---0-------0--|--1-----1--1-----1--|--1-----1---1------1--|--1------1---0-----0--|
 |-----0-----------0-----|-----2---------0----|-----0-----------0----|------2----------2----|
 |----2 ----------2------|----2---------2-----|----3-----------3-----|-----2----------5-----|
 |-----------------------|--------------------|----------------------|----------------------|
 |-----------------------|--------------------|----------------------|----------------------|
   Lord        My Soul delights And I ... ....prayer...           Take me...

 |--0----0----0----0--|--------------------|-----------------------|------------------------|
 |--------------------|--0-----0--1-----1--|-------3---------------|---------0-1------1-----|
 |-----0---------0----|-----2---------2----|--2------2---0---0-----|--1---2--------2---2p0--|
 |----3---------5-----|----5---------2-----|-----0----------2---5--|-----2--------2---------|
 |--------------------|--------------------|-----------------------|------------------------|
 |--------------------|--------------------|-----------------------|------------------------|

Verse 2 (same as 1)

 |------0-------------3---|-------5-------5-----|-----0-------3-----3--|-------------------------|
 |------------------------|---------------------|----------------------|--0----0-------------0---|
 |-----0---0------0----0--|-----0---0----0---0--|----0---0-------0-----|-----0-------5p4---------|
 |--3-----------5--5------|--7--------7---------|--3-------------5-----|----5------5------5---5--|
 |------------------------|---------------------|----------------------|-------------------------|
 |------------------------|---------------------|----------------------|-------------------------|

Chorus

Bridge:
 |--5------5--------------|--7-----7-------------|--5----5--------------|--7-----7----8p7-----7--|
 |-------------5-------5--|-------------5-----5--|------------5------5--|------------------------|
 |-----0-----------0------|-----0----------0-----|-----0----------0-----|------0-----0------0----|
 |----5-----------5-------|----5----------5------|----5----------5------|-----5------------5-----|
 |------------------------|----------------------|----------------------|------------------------|
 |------------------------|----------------------|----------------------|------------------------|

 |--5------5--------------|--7-----7-------------|--5----5--------------|--7-----7----8p7-----7--|
 |-------------5-------5--|-------------5-----5--|------------5------5--|------------------------|
 |-----0-----------0------|-----0----------0-----|-----0----------0-----|------0-----0------0----|
 |----5-----------5-------|----5----------5------|----5----------5------|-----5------------5-----|
 |------------------------|----------------------|----------------------|------------------------|
 |------------------------|----------------------|----------------------|------------------------|

 |------------------------|----------------------|----------------------|------------------------|
 |------------------------|----------------------|----------------------|------------------------|
 |------------------------|----------------------|----------------------|------------------------|
 |------------------------|----------------------|----------------------|------------------------|
 |------------------------|----------------------|----------------------|------------------------|
 |------------------------|----------------------|----------------------|------------------------|
   By Your love         You Opened my heart...    Love will shine....  always

 |------------------------|----------------------|----------------------|------------------------|
 |------------------------|----------------------|----------------------|------------------------|
 |------------------------|----------------------|----------------------|------------------------|
 |------------------------|----------------------|----------------------|------------------------|
 |------------------------|----------------------|----------------------|------------------------|
 |------------------------|----------------------|----------------------|------------------------|
  By  Your    Word

 |--5------5--------------|--7-----7-------------|--5----5--------------|--7-----7----8p7-----7--|
 |-------------5-------5--|-------------5-----5--|------------5------5--|------------------------|
 |-----0-----------0------|-----0----------0-----|-----0----------0-----|------0-----0------0----|
 |----5-----------5-------|----5----------5------|----5----------5------|-----5------------5-----|
 |------------------------|----------------------|----------------------|------------------------|
 |------------------------|----------------------|----------------------|------------------------|
   By Your love ...
 
 |--5------5--------------|--7-----7-------------|--5----5--------------|--7-----7----8p7-----7--|
 |-------------5-------5--|-------------5-----5--|------------5------5--|------------------------|
 |-----0-----------0------|-----0----------0-----|-----0----------0-----|------0-----0------0----|
 |----5-----------5-------|----5----------5------|----5----------5------|-----5------------5-----|
 |------------------------|----------------------|----------------------|------------------------|
 |------------------------|----------------------|----------------------|------------------------|
   By your word...


Chorus:

Outro:
 |--5------5--------------|--7-----7-------------|--5----5--------------|--7-----7----8p7-----7--|
 |-------------5-------5--|-------------5-----5--|------------5------5--|------------------------|
 |-----0-----------0------|-----0----------0-----|-----0----------0-----|------0-----0------0----|
 |----5-----------5-------|----5----------5------|----5----------5------|-----5------------5-----|
 |------------------------|----------------------|----------------------|------------------------|
 |------------------------|----------------------|----------------------|------------------------|
                                                                                           (x2)

Comments about this tab

No comments/corrections found. Add your own

Complimentary Christian Ringtones
Dadamobile and CGR have teamed up to bring your favorite Christian artists right to your phone. Sign up today and get 10 complementary ringtones!
Tab Country
Did you know CGR has a sister site w/ country guitar tabs? Well we do! Its called Tab Country. It has a great archive with a lot of country tabs.
Rockin Tabs
Are you looking for a site that has rock guitar tabs? Then Rockintabs.com is the place for you. It is a budding site with many rock guitar tabs. Submit your tab today.
Tab Gallery
Tab Gallery has a compilation of christian, rock, and country tabs all in one place. Come visit us.