Guitar Tabs
song title    band name

Join Us Today!

Don't strum alone...
be a part of the largest online Christian music community. Browse thousands of guitar tabs and chat w/ musicians like yourself.


It's Free!

This tab has been rated a 4.13 out of 5 for accuracy. (8 votes)Sorry, but you must be logged in to rate this tab.
Click here to log-in, or you can click here to register.
(Registration is free)

All songs owned by corresponding publishing company. If you make copies of any song on this website, be sure to report your usage to CCLI.
Submitted by: kutlesstrongtwr

I noticed the other versions of this song do not fit to the cd when played with it

Kutless 
Strong Tower
BEC Recordings / Tooth & Nail Records
Co 2001-2004 Kutless, Inc.
Tabbed by: Nate



Standard Tuning

Intro: (mute g-string here)
          |
          |  
E |-x--x--x--x-----x--x--x--x-----x--x--x--x--x--x--x--x-------------------
B |-4--4--4--4-----5--5--5--5-----x--x--x--x--x--x--x--x-------------------
G |-4--4--x--x-----2--2--4--4-----6--6--6--6--6--6--6--6-------------------
D |-x--x--4--4-----x--x--x--x-----6--6--6--6--6--6--6--6-------------------
A |-x--x--x--x-----x--x--x--x-----x--x--x--x--x--x--x--x-------------------
E |-x--x--x--x-----x--x--x--x-----x--x--x--x--x--x--x--x-------------------


E |-x--x--x--x-----x--x--x--x-----x--x--x--x--4--4--2--2-------------------
B |-4--4--4--4-----5--5--5--5-----x--x--x--x--2--2--2--2-------------------
G |-4--4--x--x-----2--2--4--4-----6--6--6--6--x--x--x--x-------------------
D |-x--x--4--4-----x--x--x--x-----6--6--6--6--x--x--x--x-------------------
A |-x--x--x--x-----x--x--x--x-----x--x--x--x--x--x--x--x-------------------
E |-x--x--x--x-----x--x--x--x-----x--x--x--x--x--x--x--x-------------------

Verse: same as intro

E |-x--x--x--x-----x--x--x--x-----x--x--x--x--x--x--x--x-------------------
B |-4--4--4--4-----5--5--5--5-----x--x--x--x--x--x--x--x-------------------
G |-4--4--x--x-----2--2--4--4-----6--6--6--6--6--6--6--6-------------------
D |-x--x--4--4-----x--x--x--x-----6--6--6--6--6--6--6--6-------------------
A |-x--x--x--x-----x--x--x--x-----x--x--x--x--x--x--x--x-------------------
E |-x--x--x--x-----x--x--x--x-----x--x--x--x--x--x--x--x-------------------


E |-x--x--x--x-----x--x--x--x-----x--x--x--x--4--4--2--2-------------------
B |-4--4--4--4-----5--5--5--5-----x--x--x--x--2--2--2--2-------------------
G |-4--4--x--x-----2--2--4--4-----6--6--6--6--x--x--x--x-------------------
D |-x--x--4--4-----x--x--x--x-----6--6--6--6--x--x--x--x-------------------
A |-x--x--x--x-----x--x--x--x-----x--x--x--x--x--x--x--x-------------------
E |-x--x--x--x-----x--x--x--x-----x--x--x--x--x--x--x--x-------------------


PreChorus:  palm muted (play twice)

    F#m                    G#m              A2

E |-2--2--2--2--2--2--2-----4-----0--0--0--0--0--0--0--0-------------------
B |-2--2--2--2--2--2--2-----4-----0--0--0--0--0--0--0--0-------------------
G |-2--2--2--2--2--2--2-----4-----2--2--2--2--2--2--2--2-------------------
D |-4--4--4--4--4--4--4-----6-----2--2--2--2--2--2--2--2-------------------
A |-4--4--4--4--4--4--4-----6-----0--0--0--0--0--0--0--0-------------------
E |-2--2--2--2--2--2--2-----4-----x--x--x--x--x--x--x--x-------------------



Chorus: all down strums
     
    E   C#m7    A2          E   C#m7    A2  Bsus  C#m7   A2

E |-0-----x-----0-----------0-----x-----0-----2-----x-----0----------------
B |-0-----x-----0-----------0-----x-----0-----2-----x-----0----------------
G |-1-----6-----2-----------1-----6-----2-----4-----6-----2----------------
D |-2-----6-----2-----------2-----6-----2-----4-----6-----2----------------
A |-2-----4-----0-----------2-----4-----0-----2-----4-----0----------------
E |-0-----x-----x-----------0-----x-----x-----x-----x-----x----------------


please rate!
Kutless rocks!
God rocks more!

Comments about this tab

Falcon-fever777 - 2005-08-31

this sounded great for the electric guitar part. I have the acoustic part in my room, so i should put it on soon!


Falcon-fever777 - 2005-09-01

there's one part everyone has seemed to miss. There is a third guitar(the second electric) in the chorus. It is a little hard to hear. I will see if i or someone else could figure it out.


Kuhn_dog11 - 2005-10-06

You stole one part from me. thanks


Falcon-fever777 - 2005-10-07

WWWWWWWWWWWWOOOOOOOOOOOOOOOWWWWWWWWWWWWWW!!!!!!!!!!!!! I just bought the Kutless Strong Tower Song book and i wanted to tell you, your tab for the intro and verse is 100% correct. The chorus and pre-chorus is a little off but wow it is right. Now if you want to play it were kutless plays it on their video, take thes notes and put them on the d, a, and g string on the lower fret board.
example bI 4-4-4-4- is the same as gI 8-8-8-8-
gI 4-4----- dI 9-9-----
dI ----4-4- aI ----9-9-
and so on.......


Falcon-fever777 - 2005-10-08

sorry i put the notes in the wrong place. just to make shure people get it.
bI-4-4-4-4- this equals this gI-8-8-8-8-
gI-4-4----- dI-9-9-----
dI-----4-4- aI-----9-9-


Falcon-fever777 - 2005-10-09

something is wrong here but i think everybody gets it


Kuhn_dog11 - 2005-10-16

i still dont think it's right


Falcon-fever777 - 2005-10-28

no offence, but sir, i have the song book and the note match perfectly!


VyrusNine - 2005-12-24

lol he said G string


Falcon-fever777 - 2006-01-05

that's sick


cryistalrider - 2006-06-18

noooo the first lil part of the intro is right but for the last eight beats for the first time is

e-------------------
b---2-2-2-2-2-2-2-2-
g---1-1-1-1-1-1-1-1-
thenn the secong time on the end is

e----4-4-4-4-2-2-2-2
b-------------------
g----6-6-6-6-6-6-6-6

thrrr people and sometimes books are wrong butits all good .there are lots of ways to play this but im prety sure this is how they play it

god bless u and ur mom


cryistalrider - 2006-06-18

noooo the first lil part of the intro is right but for the last eight beats for the first time is

e-------------------
b---2-2-2-2-2-2-2-2-
g---1-1-1-1-1-1-1-1-
thenn the secong time on the end is

e----4-4-4-4-2-2-2-2
b-------------------
g----6-6-6-6-6-6-6-6

thrrr people and sometimes books are wrong butits all good .there are lots of ways to play this but im prety sure this is how they play it

god bless u and ur mom
(they play it on 2 diff guitars thats y it mite sound kinda werid)


cryistalrider - 2006-06-18

yea sryy on the second part its


e--4-4-2-2
b--------
g--6-6-6-6


Third_Day_Rocks - 2006-07-19

If you want the correct chords and intro tab of this song just go to worshiptogether.com. Or just go to the tab requests forum, under worship together new song cafe and I posted the link to the video.


Cyno - 2006-09-20

Ok I tabbed it myself then went to see wha tothers had done, this post is one of the closest renditions I've found, what's funny to me is how wrong so many others on this site are, and it's a pretty simple riff to boot. Almost everyone else, save one other guy seems to miss that walking bass line on the 6-string?? Well whatever....I guess playing guitar for 31 years does have some advantages.

Here is what I came up with and it's a lot easier to play. No capo, just standard tuning.

|---------0-0---------------------
|-4-4-4-4---------2-2-2-2-2-2-2-2-
|-4-4-----2-2-4-4-1-1-1-1-1-1-1-1-
|-----4-4-----2-2-----------------
|---------------------------------
|---------------------------------

|---------0-0-------------4-4-2-2-
|-4-4-4-4---------2-2-2-2-2-2-2-2-
|-4-4-----2-2-4-4-1-1-1-1---------
|-----4-4-----2-2-----------------
|---------------------------------
|---------------------------------


jesusfreak936 - 2007-02-17

THIS IS RELATIVE TO CAPO 2!!!!!! the actual song isn't capo 2, but this is just an easy way to play the intro...if you wanna play it without a capo, just take everything up 2 frets and read it literally...

e|-----------------------------------------------------------2-2-0-0--|
B|-2-2-2-2-3-3-3-3-----------------2-2-2-2-3-3-3-3-3---------3-3-3-3--|
G|-2-2-2-2-2-2-2-2---4-4-4-4-4-4-4-4-2-2-2-2-2-2-2-2-4-4-4-4----------|
D|-------------2-2---4-4-4-4-4-4-4-4-------------2-2-4-4-4-4----------|
A|--------------------------------------------------------------------|
E|--------------------------------------------------------------------|


sac346 - 2007-03-21

DUDE! This song is in drop C#! why did you not catch that?


EKCender429 - 2008-01-04

sac is rite

you should b able to tell that the second chord of the chorus goes down


godfearingman82 - 2011-04-04

my church has the song book as well, and Kutless plays this song in drop D.


Add a comment/correction

Complimentary Christian Ringtones
Dadamobile and CGR have teamed up to bring your favorite Christian artists right to your phone. Sign up today and get 10 complementary ringtones!
Tab Country
Did you know CGR has a sister site w/ country guitar tabs? Well we do! Its called Tab Country. It has a great archive with a lot of country tabs.
Rockin Tabs
Are you looking for a site that has rock guitar tabs? Then Rockintabs.com is the place for you. It is a budding site with many rock guitar tabs. Submit your tab today.
Tab Gallery
Tab Gallery has a compilation of christian, rock, and country tabs all in one place. Come visit us.