Guitar Tabs
song title    band name

Join Us Today!

Don't strum alone...
be a part of the largest online Christian music community. Browse thousands of guitar tabs and chat w/ musicians like yourself.


It's Free!

This tab has been rated a 4.14 out of 5 for accuracy. (7 votes)Sorry, but you must be logged in to rate this tab.
Click here to log-in, or you can click here to register.
(Registration is free)

All songs owned by corresponding publishing company. If you make copies of any song on this website, be sure to report your usage to CCLI.
Submitted by: whatsmyageagain

Intro 
E--------------------------------------------------------------------
B--------------------------------------------------------------------
G--------------------------------------------------------------------
D--4-4-8-6-4-4-4-8-9-8-----8-6-4-----8-9-8-6-8-4~---------------------
A--------------------------------------------------------------------
E----------------------7-7-------7-7-------------------------------------

Solo
E--------------------------------------------------------
B--------------------------------------------------------
G---------------------------------------------------------
D-11-11-11-11-8-8b-6-6-8-8-9-8-11-11-11-8-8-9-8-6--------
A--------------------------------------------------------
E---------------------------------------------------------

Solo cont.
E-----------------------------------------------------------------
B-----------------------------------------------------------------
G----11-11-11-11-----------------------------------------------
D-----------------11-11-8-6-8-8-9-6-8-6-8-6-8-6-8-6-4---6-8-6-4
A-----------------------------------------------------------------
E-----------------------------------------------------------------

TAbbed by 
FSAS
XXXTimXXX

Comments about this tab

jayemm87 - 2006-04-30

all the notes and everything are correct but they play the song in Db so tune your guitar down and move the notes up one fret and it will be perfect. you did a good job tabbing this though. awesome song, awesome band.


Haste_da_day92 - 2007-04-09

Dude It Goes:
part 1
D----------------------------------------------------------------------
A----------------------------------------------------------------------
D----------------------------------------------------------------------
G------5--5----9--7---5--5---5--5--(5)/9--10--9------------------------
B----------------------------------------------------------------------
E----------------------------------------------------------------------

part 2
D----------------------------------------------------------------------
A----------------------------------------------------------------------
D----------------------------------------------------------------------
G-------------/9--7-----5----------------9--10--9/7/9/-----------------
B------3--3-----------------------3--3---------------------------------
E----------------------------------------------------------------------


But Good Job=/)


Haste_da_day92 - 2007-04-09

oh b.y.t. I got this part from the book of rock (R) Tooth and Nail Records
and Solid State


Haste_da_day92 - 2007-05-26

Sorry strings r upsidedown!


Add a comment/correction

Complimentary Christian Ringtones
Dadamobile and CGR have teamed up to bring your favorite Christian artists right to your phone. Sign up today and get 10 complementary ringtones!
Tab Country
Did you know CGR has a sister site w/ country guitar tabs? Well we do! Its called Tab Country. It has a great archive with a lot of country tabs.
Rockin Tabs
Are you looking for a site that has rock guitar tabs? Then Rockintabs.com is the place for you. It is a budding site with many rock guitar tabs. Submit your tab today.
Tab Gallery
Tab Gallery has a compilation of christian, rock, and country tabs all in one place. Come visit us.